Ordinary Boys

Maybe Someday

Ordinary Boys

tabs

by  ANG-LETRA

save to print version add songbook text version e-mail correct tuner
chordsukulelecavacokeyboardtabbassdrumsharmonicaflute Guitar Pro
close

there isn't a video lesson for this song

chords

Maybe Someday

	  		Tuning: Standard 

  Intro 
 e|------------------------------------------------------------------------| 
B|----2--2--2--2--2--2--2--2--3--2--3--2--2--2--2--2--2--2--2--2--3--5--3--| 
G|----2--2--2--2--2--2--2--2----------------2--2--2--2--2--2--2--2---------| 
D|----2--2--2--2--2--2--2--2----------------2--2--2--2--2--2--2--2---------| 
A|-------------------------------------------------------------------------| 
 E|------------------------------------------------------------------------|   x2 

   Verse 
e|-------------------------------------------------------------------------------| 
B|----x--x--2--x--x--2--x--x--2--3--2--3--2--x--x--2--x--x--2--x--x--2--3--5--3--| 
G|----x--x--2--x--x--2--x--x--2----------------x--x--2--x--x--2--x--x--2---------| 
D|----x--x--2--x--x--2--x--x--2----------------x--x--2--x--x--2--x--x--2---------| 
A|-------------------------------------------------------------------------------| 
 E|------------------------------------------------------------------------------|  x2 

  Pre-Chorus 
  Guitar 1 
 e|----2--2--2--2--2--2--2--2----0--0--0--0--0--0--0--0-----------------------| 
B|----3--3--3--3--3--3--3--3----2--2--2--2--2--2--2--2------------------------| 
G|----2--2--2--2--2--2--2--2----2--2--2--2--2--2--2--2------------------------| 
D|----0--0--0--0--0--0--0--0----2--2--2--2--2--2--2--2------------------------| 
A|----------------------------------0--0--0--0--0--0--0--0--------------------| 
E|----------------------------------------------------------------------------| 


 e|----2--2--2--2--2--2--2--2------0--0--0--0--0--0--0--0--0--0--0--0--0--0------| 
B|----3--3--3--3--3--3--3--3------0--0--0--0--0--0--0--0--0--0--0--0--0--0-------| 
G|----2--2--2--2--2--2--2--2------1--1--1--1--1--1--1--1--1--1--1--1--1--1-------| 
D|----0--0--0--0--0--0--0--0------2--2--2--2--2--2--2--2--2--2--2--2--2--2-------| 
A|------------------------------------2--2--2--2--2--2--2--2--2--2--2--2--2--2---| 
E|------------------------------------0--0--0--0--0--0--0--0--0--0--0--0--0--0---| 

   Guitar 2 
 e|----------------------------------------------------------------------------| 
B|----7---5------5---7---5-------5-5-5-5-------------5-5-----------------------| 
G|------------7----------------7---------------7---6----------7---6------------| 
D|-----------------------------------------------------------------------------| 
A|-----------------------------------------------------------------------------| 
E|-----------------------------------------------------------------------------| 


e|-----------------------------------------------------------------------------| 
B|----7---5------5---7---5-----------------------------------------------------| 
G|------------7----------------7--7--7--(b9)-(b9)-(b9)-(b9)-9b--9b--9b--9b-------------| 
D|-----------------------------------------------------------------------------| 
A|-----------------------------------------------------------------------------| 
E|-----------------------------------------------------------------------------| 

  Chorus 
e|-------------------------------------------------------------------------| 
B|----2--2--2--2--2--2--2--2--3--2--3--2--2--2--2--2--2--2--2--2--3--5--3--| 
G|----2--2--2--2--2--2--2--2----------------2--2--2--2--2--2--2--2---------| 
D|----2--2--2--2--2--2--2--2----------------2--2--2--2--2--2--2--2---------| 
A|-------------------------------------------------------------------------| 
 E|------------------------------------------------------------------------|   x2 

   Verse 
e|-------------------------------------------------------------------------------| 
B|----x--x--2--x--x--2--x--x--2--3--2--3--2--x--x--2--x--x--2--x--x--2--3--5--3--| 
G|----x--x--2--x--x--2--x--x--2----------------x--x--2--x--x--2--x--x--2---------| 
D|----x--x--2--x--x--2--x--x--2----------------x--x--2--x--x--2--x--x--2---------| 
A|-------------------------------------------------------------------------------| 
 E|------------------------------------------------------------------------------|  x2 

  Pre-Chorus 
  Guitar 1 
 e|----2--2--2--2--2--2--2--2----0--0--0--0--0--0--0--0-----------------------| 
B|----3--3--3--3--3--3--3--3----2--2--2--2--2--2--2--2------------------------| 
G|----2--2--2--2--2--2--2--2----2--2--2--2--2--2--2--2------------------------| 
D|----0--0--0--0--0--0--0--0----2--2--2--2--2--2--2--2------------------------| 
A|----------------------------------0--0--0--0--0--0--0--0--------------------| 
E|----------------------------------------------------------------------------| 


 e|----2--2--2--2--2--2--2--2------0--0--0--0--0--0--0--0--0--0--0--0--0--0------| 
B|----3--3--3--3--3--3--3--3------0--0--0--0--0--0--0--0--0--0--0--0--0--0-------| 
G|----2--2--2--2--2--2--2--2------1--1--1--1--1--1--1--1--1--1--1--1--1--1-------| 
D|----0--0--0--0--0--0--0--0------2--2--2--2--2--2--2--2--2--2--2--2--2--2-------| 
A|------------------------------------2--2--2--2--2--2--2--2--2--2--2--2--2--2---| 
E|------------------------------------0--0--0--0--0--0--0--0--0--0--0--0--0--0---| 

   Guitar 2 
 e|----------------------------------------------------------------------------| 
B|----7---5------5---7---5-------5-5-5-5-------------5-5-----------------------| 
G|------------7----------------7---------------7---6----------7---6------------| 
D|-----------------------------------------------------------------------------| 
A|-----------------------------------------------------------------------------| 
E|-----------------------------------------------------------------------------| 

e|-----------------------------------------------------------------------------| 
B|----7---5------5---7---5-----------------------------------------------------| 
G|------------7----------------7--7--7--(b9)-(b9)-(b9)-(b9)-9b--9b--9b--9b-------------| 
D|-----------------------------------------------------------------------------| 
A|-----------------------------------------------------------------------------| 
E|-----------------------------------------------------------------------------| 

  Chorus 
e|-------------------------------------------------------------------------| 
B|----2--2--2--2--2--2--2--2--3--2--3--2--2--2--2--2--2--2--2--2--3--5--3--| 
G|----2--2--2--2--2--2--2--2----------------2--2--2--2--2--2--2--2---------| 
D|----2--2--2--2--2--2--2--2----------------2--2--2--2--2--2--2--2---------| 
A|-------------------------------------------------------------------------| 
 E|------------------------------------------------------------------------|   x2 

 Interlude 
e|-----------------------------------------------------------------------------| 
B|-----------------------------------------------------------------------------| 
G|-----------------------------------------------------------------------------| 
D|-----------------------------------------------------------------------------| 
A|-----------------------------------------------------------------------------| 
E|---x-x-x-x-x-x-x-x-x-x-x-x-x-x-x-x-x-x-x-x-x-x-x-x-x-x-x-x-x-----------------| 
    Pick scrape and open strums with bass backing 

   Solo 
 e|-----------------------------------------------------------------------| 
B|----7--7--7p5h7--10--10--10--12b--12b--12b--10--12--10---12b--12b--12b--| 
G|------------------------------------------------------------------------| 
D|------------------------------------------------------------------------| 
A|------------------------------------------------------------------------| 
E|------------------------------------------------------------------------| 

 e|---------------------------------------------------------------| 
B|----7--7--7p5h7--10--10--10-------------------------------------| 
G|------------------------------------(b9)-(b9)-(b9)-(b9)-9b--9b--9b--9b--| 
D|----------------------------------------------------------------| 
A|----------------------------------------------------------------| 
E|----------------------------------------------------------------| 

  Chorus 
e|-------------------------------------------------------------------------| 
B|----2--2--2--2--2--2--2--2--3--2--3--2--2--2--2--2--2--2--2--2--3--5--3--| 
G|----2--2--2--2--2--2--2--2----------------2--2--2--2--2--2--2--2---------| 
D|----2--2--2--2--2--2--2--2----------------2--2--2--2--2--2--2--2---------| 
A|-------------------------------------------------------------------------| 
 E|------------------------------------------------------------------------|   x4 


End On 
e|-----0----| 
B|----2-----| 
G|----2-----| 
D|----2-----| 
A|----0-----| 
 E|---------| 

| b bend 
| /  slide up 
| \  slide down 
| h  hammer-on 
| p  pull-off 
| ~  vibrato 
| +  harmonic 
| x  Mute note 
		  

See also:

tabs Matisyahu - Youth tabs Nino Rota - The goodfather tabs India Arie - Get it together tabs Chris Brown - Say goodbye (intro) tabs Panic! At The Disco - Build God Then We'll Talk tabs Matisyahu - Time Of Your Song
e-chords

Other versions:

tabs Ordinary Boys - Maybe Someday
auto scroll beats size up size down change color hide chords drawings
tab show chords e-chords YouTube Clip e-chords hide all tabs e-chords go to top tab

share