Ordinary Boys

Boys will be boys

Ordinary Boys

tabs

by  EUROPEU

save to print version add songbook text version e-mail correct tuner
chordsukulelecavacokeyboardtabbassdrumsharmonicaflute Guitar Pro
close

there isn't a video lesson for this song

chords

Boys will be boys

	  		Here ya go people, the verse SKA tab every one is stuck on 
 
   Begining                  Ive had nights...... 
                ^       ^        OFF BEAT              ^       ^ 
e----------3-3-33--3-3-33-----7-7-7-7-7-7-7-7-----3-3-33--3-3-33----| 
B----------5-5-55--5-5-55-----8-8-8-8-8-8-8-8-----5-5-55--5-5-55----| 
G----------4-4-44--4-4-44-----9-9-9-9-9-9-9-9-----4-4-44--4-4-44----| 
D---54--------------------------------------------------------------| 
A---32-54-----------------------------------------------------------| 
E------32-----------------------------------------------------------| 
 
         Ive had girls...... 
             OFF BEAT                 ^       ^ 
e-----8--8--8--8--8--8--8--8-----3-3-33--3-3-33---| 
B----10-10-10-10-10-10-10-10-----5-5-55--5-5-55---| 
G-----9--9--9--9--9--9--9--9-----4-4-44--4-4-44---| 
D-------------------------------------------------| 
A-------------------------------------------------| 
E-------------------------------------------------| 
 
     Chin up Chin up            Boys will be boys........... 
        OFF BEAT                              ^       ^ 
e----7-7-7-7-----------------------------3-3-33--3-3-33-----------| 
B----7-7-7-7-----------------------------5-5-55--5-5-55-----------| 
G----7-7-7-7-----------------------------4-4-44--4-4-44-----------| 
D--------------------------------54-------------------------------| 
A--------------------------------32-54----------------------------| 
E-----------------------------------32----------------------------| 
 
 
^= UP STROKE (ALSO UP STROKE THE OFF BEAT PARTS) 
 

		  

See also:

tabs Matisyahu - Youth tabs Nino Rota - The goodfather tabs India Arie - Get it together tabs Chris Brown - Say goodbye (intro) tabs Panic! At The Disco - Build God Then We'll Talk tabs Matisyahu - Time Of Your Song
e-chords

Other versions:

tabs Backstreet Boys - Boys Will Be Boys tabs Ordinary Boys - Boys will be boys
auto scroll beats size up size down change color hide chords drawings
tab show chords e-chords YouTube Clip e-chords hide all tabs e-chords go to top tab

share