Opposing Motion

Rites Of Passage

Opposing Motion

tabs

by  AMAN_CLAUDINO

save to print version add songbook text version e-mail correct tuner
chordsukulelecavacokeyboardtabbassdrumsharmonicaflute Guitar Pro
close

there isn't a video lesson for this song

chords

Rites Of Passage

	  		

Legend 
L - tied note 
x - dead note 
h - hammer on/pull off 
b - bend 
s - slide 
~ - vibrato 
g - ghost note 
> - accentuated note 
t - trill 
M - palm mute 
. - staccato 
P - popping (bass) 
S - slapping (bass) 
+ - tapping 
W - wide vibrato 
< - fade in 
w - whammy bar 
= - tremolo picking 
v - brush up 
^ - brush down 
V - pick stroke up 
n - pick stroke down 

Guitar 1 

D |----------------------|----------------------|----------------------| 
A |-----------8----------|-----------7--8--7----|-----------8----------| 
F |--------9-----9-------|--------7-------------|--------9-----9-------| 
C |-----9-----------9----|-----7----------------|-----9-----------9----| 
G |--7-------------------|--7L-7L-7L-7L-7L-7----|--7-------------------| 
D |--0L-0L-0L-0L-0L-0----|----------------------|--0L-0L-0L-0L-0L-0----| 


----------------------|----------------------|----------------------| 
-----------7--8--7----|-----------8----------|-----------7--8--7----| 
--------7-------------|--------9-----9-------|--------7-------------| 
-----7----------------|-----9-----------9----|-----7----------------| 
--7L-7L-7L-7L-7L-7----|--7-------------------|--7L-7L-7L-7L-7L-7----| 
----------------------|--0L-0L-0L-0L-0L-0----|----------------------| 


----------------------|----------------------|----------------------| 
-----------8----------|-----------7--8--7----|-----------8----------| 
--------9-----9-------|--------7-------------|--------9-----9-------| 
-----9-----------9----|-----7----------------|-----9-----------9----| 
--7-------------------|--7L-7L-7L-7L-7L-7----|--7-------------------| 
--0L-0L-0L-0L-0L-0----|----------------------|--0L-0L-0L-0L-0L-0----| 


----------------------|-----------------8----|-------------| 
-----------7--8--7----|--------------8-------|--------7----| 
--------7-------------|-----------9----------|-----5-------| 
-----7----------------|--------10------------|--7----------| 
--7L-7L-7L-7L-7L-7----|-----10---------------|-------------| 
----------------------|--8-------------------|-------------| 


----------------------|----------------------|----------------------| 
-----------8----------|-----------7--8--7----|-----------8----------| 
--------9-----9-------|--------7-------------|--------9-----9-------| 
-----9-----------9----|-----7----------------|-----9-----------9----| 
--7-------------------|--7L-7L-7L-7L-7L-7----|--7-------------------| 
--0L-0L-0L-0L-0L-0----|----------------------|--0L-0L-0L-0L-0L-0----| 


----------------------|----------------------|----------------------| 
-----------7--8--7----|-----------8----------|-----------7--8--7----| 
--------7-------------|--------9-----9-------|--------7-------------| 
-----7----------------|-----9-----------9----|-----7----------------| 
--7L-7L-7L-7L-7L-7----|--7-------------------|--7L-7L-7L-7L-7L-7----| 
----------------------|--0L-0L-0L-0L-0L-0----|----------------------| 


----------------------|----------------------|-----------------8----| 
-----------8----------|-----------7--8--7----|--------------8-------| 
--------9-----9-------|--------7-------------|-----------9----------| 
-----9-----------9----|-----7----------------|--------10------------| 
--7-------------------|--7L-7L-7L-7L-7L-7----|-----10---------------| 
--0L-0L-0L-0L-0L-0----|----------------------|--8-------------------| 


-------------|-------------|-------------|-------------|-------------| 
--------7----|-------------|-------------|-------------|-------------| 
-----5-------|-------------|-------------|-------------|-------------| 
--7----------|--2L-2L-2L---|--2L-2L-2L---|--2L-2L-2L---|--2L-2L-2----| 
-------------|--2L-2L-2L---|--2L-2L-2L---|--2L-2L-2L---|--2L-2L-2----| 
-------------|--0L-0L-0L---|--0L-0L-0L---|--0L-0L-0L---|--0L-0L-0----| 


-------------|-------------|-------------|-------------|-------------| 
-------------|-------------|-------------|-------------|-------------| 
-------------|-------------|-------------|-------------|-------------| 
--2L-2L-2L---|--2L-2L-2L---|--2L-2L-2L---|--2L-2L-2----|--10L10L10---| 
--2L-2L-2L---|--2L-2L-2L---|--2L-2L-2L---|--2L-2L-2----|--10L10L10---| 
--0L-0L-0L---|--0L-0L-0L---|--0L-0L-0L---|--0L-0L-0----|--8L-8L-8----| 


-------------|----------------------|----------------------| 
--7L----7----|----------------------|----------------------| 
--5L----5----|----------------------|----------------------| 
--7L----7----|----------------------|-----------------9----| 
-------------|--------------7-------|--------------7-------| 
-------------|--0--------------0----|--0-------------------| 


----------------------|----------------------| 
----------------------|----------------------| 
----------------------|----------------------| 
----------------------|----------------------| 
--------------7-------|----------------------| 
--0--------------0----|--0--------0----------| 


----------------------------------------------------------| 
----------------------------------------------------------| 
----------------------------------------------------------| 
----------------------------------------------------------| 
----------------------------------------------------------| 
--0--0--0-----------0--0--0-----------0--------0----------| 


----------------------| 
----------------------| 
----------------------| 
-----------------9----| 
--------------7-------| 
--0-------------------| 


----------------------------------------------------------| 
----------------------------------------------------------| 
----------------------------------------------------------| 
----------------------------------------------------------| 
----------------------------------------------------------| 
--0--0--0-----------0--0--0-----------0--------0----------| 


----------------------|----------------------|----------------------| 
----------------------|----------------------|----------------------| 
----------------------|-----------2--2-------|--------2-------------| 
-----------2--4--5----|-----------0--0-------|--------0-------------| 
-----------0--2--3----|----------------------|----------------------| 
--0-------------------|----------------------|----------------------| 


----------------------|----------------------|----------------------| 
----------------------|----------------------|----------------------| 
-----------2--2-------|--------2-------------|-----------2--2-------| 
-----------0--0-------|--------0-------------|-----------0--0-------| 
----------------------|----------------------|----------------------| 
----------------------|----------------------|----------------------| 


----------------------|--1L-1L-1L-1L-1L-1----|--12L---12~--| 
----------------------|----------------------|-------------| 
--------2-------------|--3L-3L-3L-3L-3L-3----|--12L---12~--| 
--------0-------------|----------------------|-------------| 
----------------------|----------------------|-------------| 
----------------------|----------------------|-------------| 


----------------------|----------------------|----------------------| 
----------------------|----------------------|----------------------| 
----------------------|----------------------|----------------------| 
-----0-----0--0-------|--------0-----0-------|-----0-----0--0-------| 
-----12----12-12------|--------12----12------|-----12----12-12------| 
----------------------|----------------------|----------------------| 


----------------------|----------------------|----------------------| 
----------------------|----------------------|----------------------| 
----------------------|----------------------|----------------------| 
--------0-----0--0----|-----0-----0--0-------|--------0-----0--0----| 
--------12----12-12---|-----12----12-12------|--------12----12-12---| 
----------------------|----------------------|----------------------| 


----------------------|--6L----6----|--3L----3~---|--0L-0L-0L-0L-0L-0----| 
----------------------|--5L----5~---|--5L----5~---|----------------------| 
--10L10L10L10L10L10---|-------------|-------------|----------------------| 
--8L-8L-8L-8L-8L-8----|--5L----5~---|--5L----5~---|----------------------| 
----------------------|-------------|-------------|--7L-7L-7L-7L-7L-7----| 
----------------------|-------------|-------------|----------------------| 



Instrumental Break 
-------------|-------------|----------------------|----------------------| 
-------------|-------------|----------------------|----------------------| 
-------------|-------------|----------------------|----------------------| 
-------------|-------------|----------------------|----------------------| 
-------------|-------------|--2--2-----2----------|-----2-----2--2-------| 
-------------|-------------|--0--0-----0----------|-----0-----0--0-------| 


----------------------|----------------------|----------------------| 
----------------------|----------------------|----------------------| 
----------------------|----------------------|----------------------| 
----------------------|----------------------|----------------------| 
--2--2-----2----------|-----2-----2--2-------|--2--2-----2----------| 
--0--0-----0----------|-----0-----0--0-------|--0--0-----0----------| 


----------------------|----------------------|-------------|-------------| 
----------------------|----------------------|--------7----|-------------| 
----------------------|--5L-5L-5L-5L-5L-5----|-----5-------|-------------| 
----------------------|--5L-5L-5L-5L-5L-5----|--7----------|--2L-2L-2~---| 
-----2-----2--2-------|--3L-3L-3L-3L-3L-3----|-------------|--2L-2L-2~---| 
-----0-----0--0-------|----------------------|-------------|--0L-0L-0----| 


----------------------|----------------------|----------------------| 
----------------------|----------------------|----------------------| 
----------------------|-----------------2----|----------------------| 
--0-----------0--0----|--0-----------0-------|--0-----------0--0----| 
----------------------|----------------------|----------------------| 
----------------------|----------------------|----------------------| 


----------------------|----------------------|----------------------| 
----------------------|----------------------|----------------------| 
----------------------|----------------------|-----------------2----| 
-----------------0----|--0-----------0--0----|--0-----------0-------| 
--8--0--10----0-------|----------------------|----------------------| 
----------------------|----------------------|----------------------| 


----------------------|----------------------|----------------------| 
----------------------|----------------------|----------------------| 
----------------------|----------------------|----------------------| 
--0-----------0--0----|-----------------0----|--4L-4L-4--5L-5L-5----| 
----------------------|--8--0--10----0-------|--7L-7L-7--7L-7L-7----| 
----------------------|----------------------|--0L-0L-0--0L-0L-0----| 


----------------------|----------------------|----------------------| 
----------------------|----------------------|----------------------| 
----------------------|----------------------|----------------------| 
--0L-0L-0--2L-2L-2----|--4L-4L-4--5L-5L-5----|--7L-7L-7--5L-5L-5----| 
--3L-3L-3--3L-3L-3----|--7L-7L-7--7L-7L-7----|--3L-3L-3--3L-3L-3----| 
----------------------|--0L-0L-0--0L-0L-0----|----------------------| 


----------------------|----------------------|----------------------| 
----------------------|----------------------|----------------------| 
----------------------|----------------------|----------------------| 
--5--4--2L-2L-2L-2----|--2L-2L-2L-2L-2L-2----|--2L-2L-2L-2L-2L-2----| 
--7L-7L-7L-7L-7L-7----|--3L-3L-3L-3L-3L-3----|--2L-2L-2L-2L-2L-2----| 
--0L-0L-0L-0L-0L-0----|----------------------|--0L-0L-0L-0L-0L-0----| 

                          Orchestra 
----------------------|-------------------------------| 
----------------------|-------------------------------| 
----------------------|-------------------------------| 
--2L-2L-2L-2L-2L-2----|-------------------------------| 
--3L-3L-3L-3L-3L-3----|-------------------------------| 
--0--0--0--0--0--0----|-------------------------------| 





----------------|--4L-4L-4L-4--7L-7L-7L-7L-7----| 
----------------|--5L-5L-5L-5--4L-4L-4L-4L-4----| 
----------------|--6L-6L-6L-6--4L-4L-4L-4L-4----| 
----------------|--6L-6L-6L-6--4L-4L-4L-4L-4----| 
----------------|--4L-4L-4L-4--4L-4L-4L-4L-4----| 
----------------|-------------------------------| 


--2L-2L-2--6L-6L-6--4L-4L-4L---|--4L-4L-4L-4----| 
--4L-4L-4L-4L-4L-4--5L-5L-5L---|--5L-5L-5L-5----| 
--4L-4L-4L-4L-4L-4--4L-4L-4L---|--4L-4L-4L-4----| 
--4L-4L-4L-4L-4L-4--6L-6L-6L---|--6L-6L-6L-6----| 
--6L-6L-6L-6L-6L-6--7L-7L-7L---|--7L-7L-7L-7----| 
-------------------------------|----------------| 


--4L-4L-4L-4--7L-7L-7L-7L-7----|--11L11-9--11L11L11-6--4L-4L---| 
--5L-5L-5L-5--4L-4L-4L-4L-4----|--4L-4L-4--4--5--4--5L-5L-5L---| 
--6L-6L-6L-6--4L-4L-4L-4L-4----|--4L-4L-4-----------4L-4L-4L---| 
--6L-6L-6L-6--4L-4L-4L-4L-4----|--4L-4L-4-----------6L-6L-6L---| 
--4L-4L-4L-4--4L-4L-4L-4L-4----|--6L-6L-6-----------7L-7L-7L---| 
-------------------------------|-------------------------------| 


--4L-4L-4L-4----|-------|-------|-------|-------|-------|-------|-------| 
--5L-5L-5L-5----|-------|-------|-------|-------|-------|-------|-------| 
--4L-4L-4L-4----|--6----|-------|-------|-------|--6----|-------|-------| 
--6L-6L-6L-6----|--6----|--7----|--9----|--6----|--6----|--7----|--9----| 
--7L-7L-7L-7----|--4----|--7----|--9----|--6----|--4----|--7----|--9----| 
----------------|-------|--5----|--7----|--4----|-------|--5----|--7----| 


-------|----------------------------------------------------| 
-------|-----------14-17-14----------------14-17-14---------| 
-------|--------13----------13----------13----------13------| 
--6----|-----14----------------14----14----------------14---| 
--6----|--16----------------------16------------------------| 
--4----|----------------------------------------------------| 


--------------14L14L14L14-11L11L11L11~16L16-14L14---| 
-----------16---------------------------------------| 
--------16------------------------------------------| 
-----16---------------------------------------------| 
--18------------------------------------------------| 
----------------------------------------------------| 


--12-7--4--0----------------| 
--------------0-------------| 
-----------------1----------| 
--------------------2-------| 
-----------------------2----| 
----------------------------| 


--------------------12----------12----7-------------|----------------------| 
-----------------12----12----12----12----9----------|----------------------| 
--------------13----------13----------------9-------|----------------------| 
-----------14---------------------------------------|----------------------| 
-----11-14------------------------------------------|--------------7-------| 
--12------------------------------------------------|--0--------------0----| 


----------------------|----------------------|----------------------| 
----------------------|----------------------|----------------------| 
----------------------|----------------------|----------------------| 
-----------------9----|----------------------|----------------------| 
--------------7-------|--------------7-------|----------------------| 
--0-------------------|--0--------------0----|--0--------0----------| 


----------------------------------------------------------| 
----------------------------------------------------------| 
----------------------------------------------------------| 
----------------------------------------------------------| 
----------------------------------------------------------| 
--0--0--0-----------0--0--0-----------0--------0----------| 


----------------------| 
----------------------| 
----------------------| 
-----------------9----| 
--------------7-------| 
--0-------------------| 


----------------------------------------------------------| 
----------------------------------------------------------| 
----------------------------------------------------------| 
----------------------------------------------------------| 
----------------------------------------------------------| 
--0--0--0-----------0--0--0-----------0--------0----------| 


----------------------|----------------------|----------------------| 
----------------------|----------------------|----------------------| 
----------------------|----------------------|----------------------| 
-----------2--4--5----|--4L-4L-4--5L-5L-5----|--0L-0L-0--2L-2L-2----| 
-----------0--2--3----|--7L-7L-7--7L-7L-7----|--3L-3L-3--3L-3L-3----| 
--0-------------------|--0L-0L-0--0L-0L-0----|----------------------| 


----------------------|----------------------|----------------------| 
----------------------|----------------------|----------------------| 
----------------------|----------------------|----------------------| 
--4L-4L-4--5L-5L-5----|--7L-7L-7--5L-5L-5----|--5--4--2L-2L-2L-2----| 
--7L-7L-7--7L-7L-7----|--3L-3L-3--3L-3L-3----|--7L-7L-7L-7L-7L-7----| 
--0L-0L-0--0L-0L-0----|----------------------|--0L-0L-0L-0L-0L-0----| 


----------------------|----------------------|----------------------| 
----------------------|----------------------|----------------------| 
----------------------|----------------------|----------------------| 
--2L-2L-2L-2L-2L-2----|--2L-2L-2L-2L-2L-2----|--2L-2L-2L-2L-2L-2----| 
--3L-3L-3L-3L-3L-3----|--2L-2L-2L-2L-2L-2----|--3L-3L-3L-3L-3L-3----| 
----------------------|--0L-0L-0L-0L-0L-0----|--0--0--0--0--0--0----| 




--4L-4L-4L-4--7L-7L-7L-7L-7----|--2L-2L-2--6L-6L-6--4L-4L-4L---| 
--5L-5L-5L-5--4L-4L-4L-4L-4----|--4L-4L-4L-4L-4L-4--5L-5L-5L---| 
--6L-6L-6L-6--4L-4L-4L-4L-4----|--4L-4L-4L-4L-4L-4--4L-4L-4L---| 
--6L-6L-6L-6--4L-4L-4L-4L-4----|--4L-4L-4L-4L-4L-4--6L-6L-6L---| 
--4L-4L-4L-4--4L-4L-4L-4L-4----|--6L-6L-6L-6L-6L-6--7L-7L-7L---| 
-------------------------------|-------------------------------| 


--4L-4L-4L-4----|--4L-4L-4L-4--7L-7L-7L-7L-7----| 
--5L-5L-5L-5----|--5L-5L-5L-5--4L-4L-4L-4L-4----| 
--4L-4L-4L-4----|--6L-6L-6L-6--4L-4L-4L-4L-4----| 
--6L-6L-6L-6----|--6L-6L-6L-6--4L-4L-4L-4L-4----| 
--7L-7L-7L-7----|--4L-4L-4L-4--4L-4L-4L-4L-4----| 
----------------|-------------------------------| 


--11L11-9--11L11L11-6--4L-4L---|--4L-4L-4L-4----|----------------------| 
--4L-4L-4--4--5--4--5L-5L-5L---|--5L-5L-5L-5----|----------------------| 
--4L-4L-4-----------4L-4L-4L---|--4L-4L-4L-4----|----------------------| 
--4L-4L-4-----------6L-6L-6L---|--6L-6L-6L-6----|----------------------| 
--6L-6L-6-----------7L-7L-7L---|--7L-7L-7L-7----|----------------------| 
-------------------------------|----------------|----------------------| 



----------------------|----------------------|----------------------| 
----------------------|----------------------|----------------------| 
----------------------|----------------------|----------------------| 
----------------------|----------------------|----------------------| 
----------------------|--3L-3L-3--5L-5L-5----|--7L-7L-7L-7L-7L-7----| 
----------------------|--1L-1L-1--3L-3L-3----|--0L-0L-0L-0L-0L-0----| 


----------------------|----------------------|----------------------| 
----------------------|----------------------|----------------------| 
----------------------|----------------------|----------------------| 
----------------------|----------------------|----------------------| 
--10L10L10L10L10L10---|--7L-7L-7L-7L-7L-7----|--7L-7L-7--4L-4L-4----| 
--8L-8L-8L-8L-8L-8----|--0L-0L-0L-0L-0L-0----|--5L-5L-5--9L-9L-9----| 


----------------------|----------|----------------------------| 
----------------------|----------|----------------------------| 
--7L-7L-7L-7L-7L-7----|----------|----------------------------| 
--7L-7L-7L-7L-7L-7----|--3--5----|----------------------------| 
--5L-5L-5L-5L-5L-5----|--3--5----|----------------------------| 
----------------------|--1--3----|--5--5--5--5--5--5--5--5----| 


----------------------------| 
----------------------------| 
----------------------------| 
----------------------------| 
----------------------------| 
--5--5--5--5--5--5--5--5----| 


----|----|-----0L-0~------------------|----------------------| 
----|----|-----------3L-3~-1L-1~-0L---|--0~------------------| 
----|----|----------------------------|--------2--0----------| 
----|----|----------------------------|--------------3~------| 
----|----|--0-------------------------|----------------------| 
----|----|----------------------------|----------------------| 


--0L-0~-------1L-1~-0L---|--0~------------------| 
--------3L-3~------------|--------1--0--1-------| 
-------------------------|----------------------| 
-------------------------|----------------------| 
-------------------------|----------------------| 
-------------------------|----------------------| 


----------------------------------------------------| 
-----------------------0-----0L-0-------------------| 
--------2--0--2L-2--------2-----------0-----0L-0----| 
-----------------------------------------4----------| 
--0-------------------------------------------------| 
----------------------------------------------------| 


----------------------------------------------------| 
----------------------------------------------------| 
--------2--0--2L-2-----0-----0L-0-------------------| 
--------------------------4-----------2--0--2L-2----| 
--0-------------------------------------------------| 
----------------------------------------------------| 


----------------------------------------------------| 
-----------------------0-----0L-0-------------------| 
--------2--0--2L-2--------2-----------0-----0L-0----| 
-----------------------------------------4----------| 
--0-------------------------------------------------| 
----------------------------------------------------| 


----------------------------------------------------| 
----------------------------------------------------| 
--------2--0--2L-2-----0-----0L-0-------------------| 
--------------------------4-----------2--0--2L-2----| 
--0-------------------------------------------------| 
----------------------------------------------------| 


-----0L-0~------------------|----------------------|--0L-0~-------1L-1~-0L---| 
-----------3L-3~-1L-1~-0L---|--0~------------------|--------3L-3~------------| 
----------------------------|--------2--0----------|-------------------------| 
----------------------------|--------------3~------|-------------------------| 
--0-------------------------|----------------------|-------------------------| 
----------------------------|----------------------|-------------------------| 


--0~------------------|----------------|----------------------------| 
--------1--0--1-------|----------------|----------------------------| 
----------------------|----------------|----------------------------| 
----------------------|--3L----3--5L---|--5-----------7L----7L-7L---| 
----------------------|--3L----3--5L---|--5-----------7L----7L-7L---| 
----------------------|--1L----1--3L---|--3-----------5L----5L-5L---| 


----------------------------|----------------|----------------------------| 
----------------------------|----------------|----------------------------| 
----------------------------|----------------|----------------------------| 
--7--5--7L-7L-7L-7L-7L-7----|--3L----3--5L---|--5-----------7L----7L-7L---| 
--7--5--7L-7L-7L-7L-7L-7----|--3L----3--5L---|--5-----------7L----7L-7L---| 
--5--3--5L-5L-5L-5L-5L-5----|--1L----1--3L---|--3-----------5L----5L-5L---| 


----------------------------|----------------|----------------------------| 
----------------------------|----------------|----------------------------| 
----------------------------|----------------|----------------------------| 
--7--5--7L-7L-7L-7L-7L-7----|--3L----3--5L---|--5-----------7L----7L-7L---| 
--7--5--7L-7L-7L-7L-7L-7----|--3L----3--5L---|--5-----------7L----7L-7L---| 
--5--3--5L-5L-5L-5L-5L-5----|--1L----1--3L---|--3-----------5L----5L-5L---| 


----------------------------|----------------|----------------------------| 
----------------------------|----------------|----------------------------| 
----------------------------|----------------|----------------------------| 
--7--5--7L-7L-7L-7L-7L-7----|--3L----3--5L---|--5-----------7L----7L-7L---| 
--7--5--7L-7L-7L-7L-7L-7----|--3L----3--5L---|--5-----------7L----7L-7L---| 
--5--3--5L-5L-5L-5L-5L-5----|--1L----1--3L---|--3-----------5L----5L-5L---| 


----------------------------|--12L12L12L12L12L12~--| 
----------------------------|----------------------| 
--------------5L-5--7L-7----|----------------------| 
--7L-7L-7L-7--5L-5--7L-7----|----------------------| 
--7L-7L-7L-7--3L-3--5L-5----|----------------------| 
--5L-5L-5L-5----------------|----------------------| 


-------------|----------------------|----------------------| 
-------------|----------------------|----------------------| 
-------------|----------------------|-----------2--2-------| 
-------------|-----------2--4--5----|-----------0--0-------| 
-------------|-----------0--2--3----|----------------------| 
-------------|--0-------------------|----------------------| 


----------------------|----------------------|----------------------| 
----------------------|----------------------|----------------------| 
--------2-------------|-----------2--2-------|--------2-------------| 
--------0-------------|-----------0--0-------|--------0-------------| 
----------------------|----------------------|----------------------| 
----------------------|----------------------|----------------------| 


----------------------|----------------------|----------------------| 
----------------------|----------------------|----------------------| 
-----------2--2-------|--------2-------------|-----------2--2-------| 
-----------0--0-------|--------0-------------|-----------0--0-------| 
----------------------|----------------------|----------------------| 
----------------------|----------------------|----------------------| 


----------------------|-----5L-5~-3L-3~-1L-1~-0L---|--0~------------------| 
----------------------|----------------------------|----------------------| 
--------2-------------|----------------------------|----------------------| 
--------0-------------|----------------------------|----------------------| 
----------------------|--5-------------------------|--------3--5--0-------| 
----------------------|----------------------------|----------------------| 


--5L-5~-3L-3~-6L-6~-5L---|--5~------------------|-------------|-------------| 
-------------------------|----------------------|-------------|-------------| 
-------------------------|----------------------|-------------|-------------| 
-------------------------|----------------------|--2L-2L-2L---|--2L-2L-2L---| 
-------------------------|--------3--5--7-------|--2L-2L-2L---|--2L-2L-2L---| 
-------------------------|----------------------|--0L-0L-0L---|--0L-0L-0L---| 


-------------|-------------|-------------|-------------|-------------| 
-------------|-------------|-------------|-------------|-------------| 
-------------|-------------|-------------|-------------|-------------| 
--2L-2L-2L---|--2L-2L-2----|--2L-2L-2L---|--2L-2L-2L---|--2L-2L-2L---| 
--2L-2L-2L---|--2L-2L-2----|--2L-2L-2L---|--2L-2L-2L---|--2L-2L-2L---| 
--0L-0L-0L---|--0L-0L-0----|--0L-0L-0L---|--0L-0L-0L---|--0L-0L-0L---| 


-------------|-------------|-------------|-------------|-------------| 
-------------|-------------|--7L----7----|-------------|-------------| 
-------------|-------------|--5L----5----|-------------|-------------| 
--2L-2L-2----|--10L10L10---|--7L----7----|--2L-2L-2L---|--2L-2L-2L---| 
--2L-2L-2----|--10L10L10---|-------------|--2L-2L-2L---|--2L-2L-2L---| 
--0L-0L-0----|--8L-8L-8----|-------------|--0L-0L-0L---|--0L-0L-0L---| 


-------------|-------------|-------------|-------------|-------------| 
-------------|-------------|-------------|-------------|-------------| 
-------------|-------------|-------------|-------------|-------------| 
--2L-2L-2L---|--2L-2L-2----|--2L-2L-2L---|--2L-2L-2L---|--2L-2L-2L---| 
--2L-2L-2L---|--2L-2L-2----|--2L-2L-2L---|--2L-2L-2L---|--2L-2L-2L---| 
--0L-0L-0L---|--0L-0L-0----|--0L-0L-0L---|--0L-0L-0L---|--0L-0L-0L---| 


-------------|-------------|-------------|-------------|-------------| 
-------------|-------------|--7L----7----|-------------|-------------| 
-------------|-------------|--5L----5----|-------------|-------------| 
--2L-2L-2----|--10L10L10---|--7L----7----|-------------|-------------| 
--2L-2L-2----|--10L10L10---|-------------|--7--7-------|--7--7-------| 
--0L-0L-0----|--8L-8L-8----|-------------|--0--0-------|--0--0-------| 


-------------|-------------|-------------|| 
-------------|-------------|-------------|| 
-------------|-------------|-------------|| 
-------------|-----9-------|-------------|| 
--7--7-------|--7--7--7----|--7--7-------|| 
--0--0-------|--0-----0----|--0--0-------|| 

------------------------------------------------------------------------------------------------ 

Guitar 2 


Solo 1 

|--13-10-------10------| 
|--------10-------10---| 
|-----------10---------| 
|----------------------| 
|----------------------| 
|----------------------| 


--------------7--8----|--7--5--3--7--5L-5~---|--19-17-15-19-17L17~--| 
-----------10---------|----------------------|----------------------| 
--10----10------------|----------------------|----------------------| 
-----12---------------|----------------------|----------------------| 
----------------------|----------------------|----------------------| 
----------------------|----------------------|----------------------| 


--------1--------1--------5--------10---| 
-----3--------3--------6--------10------| 
--2--------3--------7--------10---------| 
----------------------------------------| 
----------------------------------------| 
----------------------------------------| 


--10-------5--------1--------1----------|-------------|--10L10L10~--| 
-----10-------6--------3--------3-------|-------------|-------------| 
--------10-------7--------3--------2----|--7L-7L-7~---|-------------| 
----------------------------------------|-------------|-------------| 
----------------------------------------|-------------|-------------| 
----------------------------------------|-------------|-------------| 

Solo 2 

--0--4--0--4--7--4--7--10-7--10-12-10---| 
----------------------------------------| 
----------------------------------------| 
----------------------------------------| 
----------------------------------------| 
----------------------------------------| 


--12-16-12-16-19-17-16-13-12-13-12-10---|--12s7s-4s---|--7L-7L-7~---| 
----------------------------------------|-------------|-------------| 
----------------------------------------|-------------|-------------| 
----------------------------------------|-------------|-------------| 
----------------------------------------|-------------|-------------| 
----------------------------------------|-------------|-------------| 


--16-13-------13-10-------10-7----------| 
--------15----------12----------9-------| 
-----------16----------13----------10---| 
----------------------------------------| 
----------------------------------------| 
----------------------------------------| 


--13-12-13-16-13-12-10-7--10-13-12L12---|--12~---7----|--12L12L12~--| 
----------------------------------------|-------------|-------------| 
----------------------------------------|-------------|-------------| 
----------------------------------------|-------------|-------------| 
----------------------------------------|-------------|-------------| 
----------------------------------------|-------------|-------------| 

Solo 3 

----------------------------------------------------| 
--------1--0--1L-1-----3--1--3L-3-----0-----0L-0~---| 
-----------------------------------------2----------| 
----------------------------------------------------| 
--0-------------------------------------------------| 
----------------------------------------------------| 


----------------------------------------------------| 
--------1--0--1L-1-----0-----0L-0-------------------| 
--------------------------2-----------2--0--2L-2~---| 
----------------------------------------------------| 
--0-------------------------------------------------| 
----------------------------------------------------| 


----------------------------------------------------| 
--------1--0--1L-1-----3--1--3L-3-----0-----0L-0~---| 
-----------------------------------------2----------| 
----------------------------------------------------| 
--0-------------------------------------------------| 
----------------------------------------------------| 


----------------------------------------------------| 
--------1--0--1L-1-----0-----0L-0-------------------| 
--------------------------2-----------2--0--2L-2~---| 
----------------------------------------------------| 
--0-------------------------------------------------| 
----------------------------------------------------| 


----------------------------|----------------------|-------------------------| 
-----1L-1~-0L-0~------------|----------------------|--1L-1~-0L-0~-3L-3~-1L---| 
-----------------2L-2~-0L---|--0~------------------|-------------------------| 
----------------------------|--------3--2--0~------|-------------------------| 
--0-------------------------|----------------------|-------------------------| 
----------------------------|----------------------|-------------------------| 


----------------------|----------------------------| 
--1~------------------|--13~---------13-13-15L15---| 
--------2--0--2-------|----------------------------| 
----------------------|----------------------------| 
----------------------|----------------------------| 
----------------------|----------------------------| 


----------------------------| 
--13----12----13-12-10L10L--| 
----------------------------| 
----------------------------| 
----------------------------| 
----------------------------| 


-----------------------12-17L17L17L17L17L17L17L17~--| 
--10L---------10~---13------------------------------| 
-----------------14---------------------------------| 
----------------------------------------------------| 
----------------------------------------------------| 
----------------------------------------------------| 


----------------------------|----------------------------| 
--17~---------15-13-12L12---|--13----12L12-12L12-10L10---| 
----------------------------|----------------------------| 
----------------------------|----------------------------| 
----------------------------|----------------------------| 
----------------------------|----------------------------| 


-----------------------8----| 
--10----10~---------10------| 
----------------------------| 
----------------------------| 
----------------------------| 
----------------------------| 


--12-8-----13-8-----10-8-----12-8-----13-8-----8----| 
--------10-------10-------10-------10-------10------| 
----------------------------------------------------| 
----------------------------------------------------| 
----------------------------------------------------| 
----------------------------------------------------| 


--10-8-----12-8-----13-10-8-----------------10-8----| 
--------10-------10----------12-10-8--10-12---------| 
----------------------------------------------------| 
----------------------------------------------------| 
----------------------------------------------------| 
----------------------------------------------------| 


----------------------------------------------------| 
--12-10-8-------------------------------------------| 
-----------12-10-9----------------------------------| 
--------------------12-10-9-------------------------| 
-----------------------------10-8--7--5-------------| 
-----------------------------------------7--5--3----| 


--20~---------20-20-22L22---|--20----19----20-19-17L17L--| 
----------------------------|----------------------------| 
----------------------------|----------------------------| 
----------------------------|----------------------------| 
----------------------------|----------------------------| 
----------------------------|----------------------------| 

Bridge 

--17L17L17L17~--------------|----------------------------------------| 
----------------------------|----------------------------------------| 
--------------5L-5--7L-7----|----------------------------------------| 
--------------5L-5--7L-7----|----------------------------------------| 
--------------3L-3--5L-5----|----------------------------------------| 
----------------------------|--0M----0M-0M-0M----0M----0M-0M-0M-0M---| 


----------------------------------------| 
----------------------------------------| 
----------------------------------------| 
----------------------------------------| 
----------------------------------------| 
--0M----0M-0M-0M----0M----0M-0M-0M-0M---| 


----------------------------------------| 
----------------------------------------| 
----------------------------------------| 
----------------------------------------| 
----------------------------------------| 
--0M----0M-0M-0M----0M----0M-0M-0M-0M---| 


----------------------------------------| 
----------------------------------------| 
----------------------------------------| 
----------------------------------------| 
----------------------------------------| 
--0M----0M-0M-0M----0M----0M-0M-0M-0M---| 


----------------------------------------|----------------------|-------------| 
----------------------------------------|----------------------|--7L----7~---| 
----------------------------------------|----------------------|--5L----5~---| 
----------------------------------------|--5L-5L-5~-2----------|--7L----7~---| 
----------------------------------------|--------------3L-3~---|-------------| 
--0M----0M-0M-0M----0M----0M-0M-0M-0M---|----------------------|-------------| 


----------------------------------------| 
----------------------------------------| 
----------------------------------------| 
----------------------------------------| 
----------------------------------------| 
--0M----0M-0M-0M----0M----0M-0M-0M-0M---| 


----------------------------------------| 
----------------------------------------| 
----------------------------------------| 
----------------------------------------| 
----------------------------------------| 
--0M----0M-0M-0M----0M----0M-0M-0M-0M---| 


----------------------------------------| 
----------------------------------------| 
----------------------------------------| 
----------------------------------------| 
----------------------------------------| 
--0M----0M-0M-0M----0M----0M-0M-0M-0M---| 


----------------------------------------| 
----------------------------------------| 
----------------------------------------| 
----------------------------------------| 
----------------------------------------| 
--0M----0M-0M-0M----0M----0M-0M-0M-0M---| 


----------------------------------------|-------------|-------------| 
----------------------------------------|-------------|--7L----7~---| 
----------------------------------------|-------------|--5L----5~---| 
----------------------------------------|-------------|--7L----7~---| 
----------------------------------------|--3L-3L-3~---|-------------| 
--0M----0M-0M-0M----0M----0M-0M-0M-0M---|-------------|-------------| 


-------------| 
-------------| 
-------------| 
-------------| 
--2----------| 
--0----------| 
		  

See also:

tabs Deep Purple - Demonds Eye tabs Deep Purple - Money Talks tabs Ira! - Eu Quero Sempre Mais (Com Pitty, intro) tabs Albert Hammond Jr - Holiday tabs Deep Purple - Smoke on the water (intro) tabs Deep Purple - Smoke on the Water (ver. 2)
e-chords

Other versions:

tabs Opposing Motion - Rites Of Passage
auto scroll beats size up size down change color hide chords drawings
tab show chords e-chords YouTube Clip e-chords hide all tabs e-chords go to top tab

share