Opeth

Voice Of Treason

Opeth

tabs

by  BRUNBLAZKOWSKI

save to print version add songbook text version e-mail correct tuner
chordsukulelecavacokeyboardtabbassdrumsharmonicaflute Guitar Pro
close

there isn't a video lesson for this song

chords

Voice Of Treason

	  		 

Guitars enter at 2:10 
e|-------------------------------------------| 
B|-------------------------------------------| 
G|-------------------------------------------| 
D|-------------------------------------------| 
A|-5--7--8--7--------------5h7---------------| x2 
E|-5--7--8--7--/17\0------------5h7-3h5-0----| 

e|-0--------------0--------0--------1---0----| 
B|-0--------------0--------0--------1---0----| 
G|-1--------/10---1--------1--------2---1----| 
D|-2---------x----2--------2--------3---2----| x2 
A|-2--------/8----2--------2--------3---2----| 
E|-0--------------0--------0--------1---0----| 


Palm muted and acoustic/clean (I'm not sure if I'm adding that third F or if it's really played) 
e|-------------------------------------------------------| 
B|-------------------------------------------------------| 
G|-------------------------------------------------------| 
D|--------------------6----------------------------------| x2 
A|-----8-7-8-7--7-7-8----8-7-8-7-x-8--7--5---------------| 
E|-0-0----------------------------------------3/6-5\3----| 


e|-------------------------------------------| 
B|-------------------------------------------| 
G|-------------------------------------------| 
D|-------------------------------------------| 
A|-5--7--8--7--------------5h7---------------| x2 
E|-5--7--8--7--/17\0------------5h7-3h5-0----| 


Goooood (God, not good) this scale is delicious 
e|-----------------------------------------------------| 
B|----------------------------------------------8-9----| 
G|-----------------------------------7-10--9-10--------| 
D|----------------6--6---6-9-6---6-9-------------------| 
A|-------5----5-8------8-------7-----------------------| 
E|-0-4-7----7------------------------------------------| 
                                                        } x4 
           e|------------------------------------------| 
           B|-11b12--11--9-11--------------------------| 
           G|------------------------------------------| 
           D|-----------------8b9--8--8h9p8p6h8p6------| 
           A|------------------------------------------| 
           E|-------------------------------------0----| 


Instead of writing that weird and changing rhythm im just gonna write the octaves used... 
Pretty sure I can hear some open notes in all of 'em 
e|-------------------------------------------------------------------------| 
B|-------------------------------------------------------------------------| 
G|-9--------------------10----12----14----16-----15------12----11----13----| 
D|-x---------------------x-----x-----x-----x------x-------x-----x-----x----| 
A|-7---------------------8----10----12----14-----13------10-----9----11----| 
E|-------------------------------------------------------------------------| 

e|--------------------------| 
B|--------------------------| 
G|-2-------------------9----| 
D|-2----5----3----7----9----| x2 
A|-0----5----3----5----7----| 
E|------3----1----5---------| 

e|---------------------| 
B|---------------------| 
G|-2-------------------| 
D|-2----5----3----7----| 
A|-0----5----3----5----| 
E|------3----1----5----| 

************************************ 

| /   slide up 
| \   slide down 
| h   hammer-on 
| p   pull-off 
| ~   vibrato 
| +   harmonic 
| x   Mute note 
| b   Bend 
| pb  Pre-bend 
| br  Bend release 
| pbr Pre-bend release 
| brb Bend release bend 

************************************ 
		  

Full key step upFull key step up
Half key step upHalf key step up
Half key step downHalf key step down
Full key step downFull key step down
hide glossary

See also:

tabs Refused - Dawkins Christ tabs Royal Republic - Full Steam Spacemachine tabs Opeth - Slither tabs Änglagård - Jordrök tabs Opeth - Wreath tabs Evergrey - Blinded (Intro)
e-chords

Other versions:

tabs Opeth - Voice Of Treason
auto scroll beats size up size down change color hide chords drawings
tab show chords e-chords YouTube Clip e-chords hide all tabs e-chords go to top tab

share