Opeth

Marrow Of The Earth

Opeth

tabs Expert expert

by  SABRJOAO

save to print version add songbook text version e-mail correct tuner
chordsukulelecavacokeyboardtabbassdrumsharmonicaflute Guitar Pro
close

there isn't a video lesson for this song

chords

Marrow Of The Earth

	  		

              0:00 - 0:12 
e|--------------------------------------------------------------------------------| 
B|--10h8-----------8-7h8h7-----5h7h5-5--------7-5h7h5-5----5-3-2h3----------------| 
G|-------7-------7--------------------6-6/7------------7-6--------4------------4--| 
D|---------8-7-8------------------------------------------------------------------| 
A|--------------------------------------------------------------------------------| 
E|--------------------------------------------------------------------------------| 
                           if u want: 
e|--------------------------------------------------------------------------------| 
B|------------------------------------------------------------------10---12-------| 
G|---------------------------------------------------------------------------9-11-| 
D|--------------------------------------------------------------------------------| 
A|--------------------------------------------------------------------------------| 
E|--------------------------------------------------------------------------------| 

              0:12 - 0:20 
 e|------------------------------------------------| 
 B|-11-10h11h10-10---------------------------------| 
 G|---------------12-10-9\7-6-7-6---6h7/11---------| 
 D|------------------------------------------------| 
 A|------------------------------------------------| 
 E|------------------------------------------------| 

              0:24 - 0:37  
 e|-------------------------------------------------------------------------------| 
 B|---------7---7-5--3--3h5h3\2-----6-5h6h5-3---5/8------7/9-8-8h9h8-6--5h6h5-3---| 
 G|--4--6--7-------------------4-------------5-----7-5-7--------------------------| 
 D|-------------------------------------------------------------------------------| 
 A|-------------------------------------------------------------------------------| 
 E|-------------------------------------------------------------------------------| 

              0:37 - 0:52 
 e|----------------------------------|----------------------------| 
 B|-6h4------------------------------|----------------------------| 
 G|----6---5h4-----7--5--5h7h5\4-7---|-9/12-7/9-5/7-2--7/9-5/7-4--| 
 D|-----------7----------------------|----------------------------| 
 A|----------------------------------|----------------------------| 
 E|----------------------------------|----------------------------| 

             0:52 - 1:22 
 e|-----------------------------------------------------------------------------------------| 
 B|-----------------------------------------------12--10------------------------------------| 
 G|-7-----9/11--11\9-7-----7-----9/11--11\9-7-------------9--11-12--------------------------| 
 D|------------------------------------------------------------------12h10-9---10---9-10-9--| 
 A|-----------------------------------------------------------------------------------------| 
 E|-----------------------------------------------------------------------------------------| 

             1:22 - 1:40 
 e|--------------------------------------------------------------------------------| 
 B|--10h8-----------8-7h8h7-----5h7h5-5--------7-5h7h5-5----5-3-2h3----------------| 
 G|-------7-------7--------------------6-6/7------------7-6--------4---------------| 
 D|---------8-7-8------------------------------------------------------------------| 
 A|--------------------------------------------------------------------------------| 
 E|--------------------------------------------------------------------------------| 

             1:40 - 1:53 
 e|-------------------------------------------------------------------------------| 
 B|---------7---7-5--3--3h5h3\2-----6-5h6h5-3---5/8------7/9-8-8h9h8-6--5h6h5-3---| 
 G|--4--6--7-------------------4-------------5-----7-5-7--------------------------| 
 D|-------------------------------------------------------------------------------| 
 A|-------------------------------------------------------------------------------| 
 E|-------------------------------------------------------------------------------| 

             1:53 - 2:08 
 e|------------------------------------|----------------------------| 
 B|-6h4--------------------------------|----------------------------| 
 G|----6---5h4-----7--5--5h7h5\4-4/7---|-9/12-7/9-5/7-2--7/9-5/7-4--| 
 D|-----------7------------------------|----------------------------| 
 A|------------------------------------|----------------------------| 
 E|------------------------------------|----------------------------| 

             2:08 - 2:39 
 e|-----------------------------------------------------------------------------------------| 
 B|-----------------------------------------------12--10------------------------------------| 
 G|-7-----9/11--11\9-7-----7-----9/11--11\9-7-------------9--11-12--------------------------| 
 D|------------------------------------------------------------------12h10-9---10---9-10-9--| 
 A|-----------------------------------------------------------------------------------------| 
 E|-----------------------------------------------------------------------------------------| 

        2:39 - until the end 
 e|--19-20-19--17---17-18-17--15--| 
 B|-------------------------------| 
 G|-------------------------------|       
 D|-------------------------------| 
 A|-------------------------------| 
 E|-------------------------------| 
		  

See also:

tabs Royal Republic - Save The Nation tabs Opeth - Dignity tabs The Royal Concept - Goldrushed tabs Sabaton - Aces In Exile tabs Sabaton - In The Name Of God tabs Evergrey - Blinded (Intro)
e-chords

Other versions:

tabs Opeth - Marrow Of The Earth
auto scroll beats size up size down change color hide chords drawings
tab show chords e-chords YouTube Clip e-chords hide all tabs e-chords go to top tab

share