Opeth

I Feel The Dark

Opeth

tabs

by  HEBEALMEIDA

save to print version add songbook text version e-mail correct tuner
chordsukulelecavacokeyboardtabbassdrumsharmonicaflute Guitar Pro
close

there isn't a video lesson for this song

chords

I Feel The Dark

	  		

Intro 
e|---------------------------------------------------------------------------| 
B|----------------------~----------------------------------------------------| 
G|----------------------9------9---------9-----------------------------------| 
D|-7h9h7---------------------------------------------------------------------| 
A|-------10-9-7------7-------7---------7-------------------------------------| 
E|-----------------0------0----------0------0--------------------------------| 

Bridge 
e|-0-------------------------------------------------------------------------| 
B|---0-3---3---3---3---3---3---3---------------------------------------------| 
G|-------3---3---1---1-------------------------------------------------------| 
D|-----------------------3---3---2~~~~~--------------------------------------| 
A|---------------------------------------------------------------------------| 
E|---------------------------------------------------------------------------| 

Heavyness 
e|---------------------------------------------------------------------------| 
B|---------------------------------------------------------------------------| 
G|---------------------------------------------------------------------------| 
D|--8----6----3----2--3--2---------------------------------------------------| 
A|--8----6----3----2--3--2---------------------------------------------------| 
E|--6----4----1----0--1--0---------------------------------------------------| 

Grooviness  
e|---------------------------------------------------------------------------| 
B|---------------------------------------------------------------------------| 
G|---------------------------------------------------------------------------| 
D|----4h5-2-2h4-4h5h4h2------------------------------------------------------| 
A|----------------------3-5-2-3---2------------------------------------------| 
E|-2----------------------------5---3h5-0------------------------------------| 

Acoustic Grooviness 
e|---------------------------------------------------------------------------| 
B|---------------------------------------------------------------------------| 
G|---------------------------------------------------------------------------| 
D|----4h5-2-2h4-4h5h4h2------------------------------------------------------| 
A|----------------------3-5-2-3---2------------------------------------------| 
E|-2----------------------------5---3h5-0------------------------------------| 

e|---------------------------------------------------------------------------| 
B|---------------------------------------------------------------------------| 
G|---------------------------------------------------------------------------| 
D|-------------------2-----2-5-2-4-------------------------------------------| 
A|---2-4h5h4---2-4-5---3-5---------------------------------------------------| 
E|-2---------5---------------------------------------------------------------| 

AAAAAAaaahhhhhhhhhhhhhhhhhhhhh 
e|---------------------------------------------------------------------------| 
B|---------------------------------------------------------------------------| 
G|-11/-------------11/-------------9/----------------------------------------| 
D|-11/------/4-----11/----/4-------9/-----/2-----------------------/2--------| 
A|--9/------/4------9/----/4-------7/-----/2--------/7-9-10~~~~----/2--------| 
E|----------/2------------/2--------------/0-----------------------/0--------| 

Last riff 
e|-----------------------------<5>-------------------------------------------| 
B|-----------------------------<5>-------------------------------------------| 
G|---------------------------------------------------------------------------| 
D|-9--8---8/9/8----8-8---9---------------------------------------------------| 
A|-7--6---6/7/6----6-6---7---------------------------------------------------| 
E|---------------------------------------------------------------------------| 
 
		  

See also:

tabs Nomy - Spank My Ass tabs Royal Republic - Weekend Man tabs Royal Republic - Uh Huh tabs Royal Republic - Full Steam Spacemachine tabs Opeth - Cusp Of Eternity tabs Royal Republic - Baby
e-chords

Other versions:

tabs Opeth - I Feel The Dark
auto scroll beats size up size down change color hide chords drawings
tab show chords e-chords YouTube Clip e-chords hide all tabs e-chords go to top tab

share