Opeth

Goblin

Opeth

tabs

by  ANDRSOUZA

save to print version add songbook text version e-mail correct tuner
chordsukulelecavacokeyboardtabbassdrumsharmonicaflute Guitar Pro
close

there isn't a video lesson for this song

chords

Goblin

	  		------------------------------------------------------------------------------- 
                             Goblin - Opeth 
------------------------------------------------------------------------------- 
Tabbed by: David Benítez 
E-mail: [email protected] 

Tuning: EADGBe 

Pretty easy but 70s song, be sure to post any comment and/or suggestions, and don't forget to rate! 
Have fun :) 

e|-----------------------------------------| 
B|-8---10---11---10---8---10----8---8------| 
G|---7----7----7----7---7----10---8---7----| 
D|-----------------------------------------| This little riff is repeated maaaany many times 
A|-----------------------------------------| throughout the song, just loop the hell out of it haha 
E|-----------------------------------------| 

 These notes enter with a volume swell 
e|-------------------------| 
B|-------------------------| 
G|-12----------------10----| 
D|-------------------------| 
A|-------------------------| 
E|-------------------------| 

Keyboards enter playing this riff four times, then a guitar joins for 8 repeats 
e|----------------------| 
B|----------------------| 
G|----------------------| 
D|-5p3--------5----3----| x8 
A|-----5----5----5------| 
E|-------3--------------| 

e|-----------------------------------| 
B|-----------------------------------| 
G|----------------------7-8-7-5------| 
D|-5p3-------3--------6---------6----| 
A|-----5-4-----5----5----------------| 
E|---------------4-------------------| 

e|---------------------------------|-----------------------------------| 
B|---------------------------------|-----------------------------------| 
G|---------------------------------|-----------------------------------| 
D|-6p4--------6----4----4h6p4------|-4h6p4--------6----4----4h6p4------| x7 the last bar 
A|-----6----6----6----6-------6----|-------6----6----6----6-------6----| 
E|-------4-------------------------|---------4-------------------------| 

e|-----------------------------------| 
B|-----------------------------------| 
G|----------------------8-9-8-6------| 
D|-6p4-------4--------7---------7----| 
A|-----6-5-----6----6----------------| 
E|---------------5-------------------| 

e|----------------------| 
B|----------------------| 
G|----------------------| 
D|-5p3--------5----3----| x8 
A|-----5----5----5------| 
E|-------3--------------| 

e|---------------------------------|-----------------------------------| 
B|---------------------------------|-----------------------------------| 
G|---------------------------------|-----------------------------------| 
D|-5p3--------5----3----3h5p3------|-3h5p3--------5----3----3h5p3------| x7 the last bar 
A|-----5----5----5----5-------5----|-------5----5----5----5-------5----| 
E|-------3-------------------------|---------3-------------------------| 

e|-----------------------------------| 
B|-----------------------------------| 
G|----------------------7-8-7-5------| 
D|-5p3-------3--------6---------6----| 
A|-----5-4-----5----5----------------| 
E|---------------4-------------------| 

e|---------------------------------|-----------------------------------| 
B|---------------------------------|-----------------------------------| 
G|---------------------------------|-----------------------------------| 
D|-6p4--------6----4----4h6p4------|-4h6p4--------6----4----4h6p4------| x7 the last bar 
A|-----6----6----6----6-------6----|-------6----6----6----6-------6----| 
E|-------4-------------------------|---------4-------------------------| 

e|-----------------------------------| 
B|-----------------------------------| 
G|----------------------8-9-8-6------| 
D|-6p4-------4--------7---------7----| 
A|-----6-5-----6----6----------------| 
E|---------------5-------------------| 


Solo (?) 
e|------------------------------------------------------7------| 
B|--------------------------------------------------------6----| 
G|-9--5--7-9--5-2--4-5-5/7----9--5--7-9--5-2--4-5-5/7----------| 
D|----------------------------------------------------6--------| x3 
A|-------------------------------------------------------------|  
E|-------------------------------------------------------------| 

Maybe this is spreaded more over the neck but they're still these notes... something weird happens 
at the end that I can't quite hear well 
e|-----------------------------0------------| 
B|---------------8----/10-------------------| 
G|-9-----6-8--------------\8-9--------------| 
D|----8-------7-----7------------8-----7----| x4 
A|------------------------------------------| 
E|------------------------------------------| 


Outro - x2 
e|-------------------------------------------------------------------------------------| 
B|-------------------------------------------------------------------------------------| 
G|-------------------------------------------------------------------------------------| 
D|-----------------------------------------/8-7-8p7-----------------------------5------| 
A|-------------------------7-7-6-6------------------10--7--8--7--8p7-6--------6--------| 
E|-3-3-5-5-3-3-5-5-6-6-5-5---------8-8-5-5----------------------------------------5----| 

e|-----------------------------------------------------------------------------------------------| 
B|-----------------------------------------------------------------------------------------------| 
G|-----------------------------------------------------------------------------------------------| 
D|------------------------------------------8-8-8-7-7-7-----------------------------------5------| 
A|-------------------------7-7-6-6----------------------10-10-10-7-7-7-8-8-8-7-7-7-6----6--------| 
E|-3-3-5-5-3-3-5-5-6-6-5-5---------8-8-5-5--------------------------------------------------5----| 


************************************ 

| /   slide up 
| \   slide down 
| h   hammer-on 
| p   pull-off 
| ~   vibrato 
| +   harmonic 
| x   Mute note 
| b   Bend 
| pb  Pre-bend 
| br  Bend release 
| pbr Pre-bend release 
| brb Bend release bend 

************************************ 
		  

See also:

tabs Refused - Dawkins Christ tabs Royal Republic - Full Steam Spacemachine tabs Opeth - Slither tabs Änglagård - Jordrök tabs Opeth - Wreath tabs Evergrey - Blinded (Intro)
e-chords

Other versions:

tabs Opeth - Goblin
auto scroll beats size up size down change color hide chords drawings
tab show chords e-chords YouTube Clip e-chords hide all tabs e-chords go to top tab

share