Opeth

Elysian Woes

Opeth

tabs

by  IRONPOWER4EVER

save to print version add songbook text version e-mail correct tuner
chordsukulelecavacokeyboardtabbassdrumsharmonicaflute Guitar Pro
close

there isn't a video lesson for this song

chords

Elysian Woes

	  		

As of 08/10/2014 I've only tabbed the right channel and the solo; 

Since my strings are so old that they sound horribly out of tune on higher frets I couldn't tab  
out the left channel of the song without going crazy, but it seems its completely the same except  
an octave higher. The only exception is the second bar after the verse where the right channel plays  
what is written here while the left channel plays its version of the first bar after the verse, 
everything else is the same. I do plan on adding the high part but I need to buy some new strings lol 

Any suggestions/comments are more than appreciated, and don't forget to rate! Have fun :) 

Intro 
e|----------------------------------------------------------------------------| 
B|-----7------7----------7------7----------7------7----------7------7---------| 
G|---7------7---7------7------7---7------7------7---7------7------7---7-------| 
D|-9-----11-------11-9-----11-------11-9-----11-------11-9-----11-------11----| 
A|----------------------------------------------------------------------------| 
E|----------------------------------------------------------------------------| 


Verse 
e|----------------------------------------------------------------------------| 
B|-----7------7----------7------7----------7------7----------7------7---------| 
G|---7------7---7------7------7---7------7------7---7------7------7---7-------| 
D|-9-----11-------11-9-----11-------11-9-----11-------11-9-----11-------11----| 
A|----------------------------------------------------------------------------| 
E|----------------------------------------------------------------------------| 
                                                                               } x4 
e|----------------------------------------------------------------------------| 
B|-------6-----6----------6-----6----------6-----6----------6-----6-----------| 
G|-----6-----6---6------6-----6---6------6-----6---6------6-----6---6---------| 
D|--10-----8-------8-10-----8-------8-10-----8-------8-10-----8-------8-------| 
A|----------------------------------------------------------------------------| 
E|----------------------------------------------------------------------------| 


e|---------5------------------7------------------5------------------7----------| 
B|-----5-----5------------0-----0------------5-----5------------0-----0--------| 
G|---5---5-----5--------8---8-----8--------5---5-----5--------8---8-----8------| 
D|-7-------------7----9-------------9----7-------------7----9-------------9----| 
A|-----------------------------------------------------------------------------| 
E|-----------------------------------------------------------------------------| 


e|-----------0----------------0----------------------0-----------------0---------------| 
B|------10-----10--------10-----10--------------0------0----------0------0-------------| 
G|----9----9------9----9----9------9----9----11---11-----11----11---11-----11----11----|  
D|-10---------------10---------------10---13----------------13----------------13-------| x4 
A|-------------------------------------------------------------------------------------| 
E|-------------------------------------------------------------------------------------| 


e|-5--5----5--5----5--5----4----| 
B|-5--5----5--5----5--5----5----| 
G|-5--5----5--5----5--5----4----| 
D|-7--7----4--4----3--3----2----| 
A|------------------------------| 
E|------------------------------| 


Bridge/Solo 
e|---------------------0------------------------------| 
B|-----0-----0-----0-----0----------------------------| 
G|---0-----0-----0---0-------------------------0------| 
D|-2-----1-----2-----------------4/7\5-4\2---2---2----| 
A|---------------------------0h2-----------2----------| 
E|-------------------------0--------------------------| 
                                                       } x3 
e|---------------------------------0-----------0------| 
B|-----0-----0-----0-----0-----0-----0-----0-----0----| 
G|---0-----0-----0-----0-----0---0-------0---0--------| 
D|-2-----1-----2-----4-----5-----------4--------------| 
A|----------------------------------------------------| 
E|----------------------------------------------------| 
| 
(Starts second time) 
e|------------------------------------------------------------| 
B|------------------------------------------------------------| 
G|-12-14-14/16--11-12------12-14-14/16--11-12-----------------| 
D|--------------------------------------------13-14--/(16)----| x2 
A|------------------------------------------------------------| 
E|------------------------------------------------------------| 


e|-----0-----0-----0-----0-----0-----0-----0-----0----| 
B|---0-----0-----0-----0-----0-----0-----0-----0------| 
G|-------0-----------0-----------0-----------0--------| 
D|-5-----------4-----------2-----------2--------------| x2 
A|----------------------------------------------------| 
E|----------------------------------------------------| 
| 
e|-------------------------------| 
B|-------------------------------| 
G|-------------------------------| 
D|-17--17--16-----17\------14----| x2 
A|--x---x----------x--------x----| 
E|-15--15-----14--15\-(12)-12----| 

e|-----0-----0-----0-----0-----0-----0-----0------0----| 
B|---0-----0-----0-----0-----0-----0-----0------0------| 
G|-------0-----------7-----4-----------4---------------| 
D|-9-----------7-----------------2-----------2---------| x2 
A|-----------------------------------------------------| 
E|-----------------------------------------------------| 
| 
e|---------------------------| 
B|---------------------------| 
G|-16--16--14-----19\--16----| 
D|--x---x----------x----x----| x2 
A|-14--14-----12--17\--14----|  
E|---------------------------| 

e|-----0-----0-----0-----0-----0-----0-----0-----0----| 
B|---0-----0-----0-----0-----0-----0-----0-----0------| 
G|-9-----------7-----------4-----------4--------------| 
D|-------9-----------7-----------2-----------2--------| 
A|----------------------------------------------------| 
E|----------------------------------------------------| 
                                                        } x2 
e|-----0-----0-----0-----0-----0-----------------| 
B|---0-----0-----0-----0-----0-----0-------------| 
G|-9-----------7-----------4-----0---------------| 
D|-------9-----------7---------------4--2--------| 
A|-----------------------------------------------| 
E|-----------------------------------------------| 
| 
e|------------------------------------------------------------| 
B|------------------------------------------------------------| 
G|-9----7--------9/12\11-9--------9----7------7h9-------------| 
D|---9----7--7h9--------------------9----7---x-----9--\7\5----| x2 
A|------------------------------------------x-----------------| 
E|------------------------------------------------------------| 


e|-5--5----5--5----5--5----4--------5--5----5--5----5--5----| 
B|-5--5----5--5----5--5----5--------5--5----5--5----5--5----| 
G|-5--5----5--5----5--5----4--------5--5----5--5----5--5----| 
D|-7--7----4--4----3--3----2--------7--7----4--4----3--3----| 
A|----------------------------------------------------------| 
E|----------------------------------------------------------| 


Outro 
e|----------------------------------------------------------------------------| 
B|-----7------7----------7------7----------7------7----------7------7---------| 
G|---7------7---7------7------7---7------7------7---7------7------7---7-------| 
D|-9-----11-------11-9-----11-------11-9-----11-------11-9-----11-------11----| 
A|----------------------------------------------------------------------------| 
E|----------------------------------------------------------------------------| 

e|----------------------------------------------------------------------------| 
B|-----7------7----------7------7----------7------7----------7------7---------| 
G|---7------7---7------7------7---7------7------7---7------7------7---7-------| 
D|-9-----11-------11-9-----11-------11-9-----11-------11-9-----11-------11----| 
A|----------------------------------------------------------------------------| 
E|----------------------------------------------------------------------------| 
                                                                               } x4 
e|----------------------------------------------------------------------------| 
B|-------6-----6----------6-----6----------6-----6----------6-----6-----------| 
G|-----6-----6---6------6-----6---6------6-----6---6------6-----6---6---------| 
D|--10-----8-------8-10-----8-------8-10-----8-------8-10-----8-------8-------| 
A|----------------------------------------------------------------------------| 
E|----------------------------------------------------------------------------| 

An overdriven guitar enters and play this while both clean guitars repeat the same 1.5 times 
e|------------------|------------------|------------------| 
B|------------------|------------------|------------------| 
G|------------------|------------------|------------------| 
D|------------------|------------------|------------------| 
A|-2----------------|-1----------------|-2----------------| 
E|------------------|------------------|------------------| 

************************************ 

| /   slide up 
| \   slide down 
| h   hammer-on 
| p   pull-off 
| ~   vibrato 
| +   harmonic 
| x   Mute note 
| b   Bend 
| pb  Pre-bend 
| br  Bend release 
| pbr Pre-bend release 
| brb Bend release bend 

************************************ 
		  

See also:

tabs Refused - Dawkins Christ tabs Royal Republic - Full Steam Spacemachine tabs Opeth - Slither tabs Änglagård - Jordrök tabs Opeth - Wreath tabs Evergrey - Blinded (Intro)
e-chords

Other versions:

tabs Opeth - Elysian Woes
auto scroll beats size up size down change color hide chords drawings
tab show chords e-chords YouTube Clip e-chords hide all tabs e-chords go to top tab

share