Opeth

Dignity

Opeth

tabs

by  DEIVCAVALCANTI

save to print version add songbook text version e-mail correct tuner
chordsukulelecavacokeyboardtabbassdrumsharmonicaflute Guitar Pro
close

there isn't a video lesson for this song

chords

Dignity

Key:  E More
Dignity Key BB
Dignity Key CC
Dignity Key C#C#
Dignity Key DD(one step down)
Dignity Key D#D#(half step down)
Dignity Key EE(original key)
Dignity Key FF(half step up)
Dignity Key F#F#(one step up)
Dignity Key GG
Dignity Key G#G#
Dignity Key AA
Dignity Key A#A#
	  		Intro 
- Triplet feel (E's are eighth note triplets) 

  4/4                          5/4 
  Gtr 1 & 2 
    E+E E E E E E+E E E E E      E+E E E E E E+E E E E E E E E 
e|----------------------------|----------------------------------| 
B|----------------------------|----------------------------------| 
G|----------------------------|----------------------------------| 
D|--4---4-4-x-x-4---4-4-x-x---|--4---4-4-x-x-4---4-4-------------| 
A|--x---x-x-x-x-x---x-x-x-x---|--x---x-x-x-x-x---x-x-----1-------| 
E|--2---2-2-x-x-2---2-2-x-x---|--2---2-2-x-x-2---2-2-0-2---0-3---| 

  4/4 
    Q     Q     Q     Q          Q     E E E Q     E+E E    
e|----------------------------|----------------------------| 
B|----------------------------|----------------------------| 
G|----------------------------|----------------------------| 
D|----------------------------|-/5~----4-------------------| 
A|--------------4-----5-------|----------5-------------1---| 
E|--2-----3-------------------|------------4-3~----0-------| 

  4/4                          5/4 
    E+E E E E E E+E E E E E      E+E E E E E E+E E E E E E E E 
e|----------------------------|----------------------------------| 
B|----------------------------|----------------------------------| 
G|----------------------------|----------------------------------| 
D|--4---4-4-x-x-4---4-4-x-x---|--4---4-4-x-x-4---4-4-------------| 
A|--x---x-x-x-x-x---x-x-x-x---|--x---x-x-x-x-x---x-x-----1-------| 
E|--2---2-2-x-x-2---2-2-x-x---|--2---2-2-x-x-2---2-2-0-2---0-3---| 

  4/4 
    Q     Q     Q     Q          Q     E E E Q     E+E E    
e|----------------------------|----------------------------| 
B|----------------------------|----------------------------| 
G|----------------------------|----------------------------| 
D|----------------------------|-/5~----4-------------------| 
A|--------------4-----5-------|----------5-----------------| 
E|--2-----3-------------------|------------4-3~----0---6---| 


    E+E E E+E E E E E E E E      E  E E  E  E E  E  E+E+E E E    
e|----------------------------|---------------------------------| 
B|----------------------------|---------------------------------| 
G|----------------------------|-------------9-------------------| 
D|----------------------8-10--|--11---10-11---11-10-------------| 
A|--9---9-9-----7h9-9-9-------|-----9---------------9~------7---| 
E|------------9---------------|---------------------------8-----| 


    E+E E E+E E E E E E E E      E  E E  E  E E  E +E E E E E    
e|----------------------------|---------------------------------| 
B|----------------------------|---------------------------------| 
G|----------------------------|-------------9---------0---0-----| 
D|----------------------8-10--|--11---10-11---11-10\----4---5---| 
A|--9---9-9-----7h9-9-9-------|-----9---------------------------| 
E|------------9---------------|---------------------------------| 

  4/4                          5/4 
     E+E E E E E E+E E E E E      E+E E E E E E+E E E E E E E E 
e||----------------------------|----------------------------------| 
B||o---------------------------|----------------------------------| 
G||----------------------------|----------------------------------| 
D||--4---4-4-x-x-4---4-4-x-x---|--4---4-4-x-x-4---4-4-------------| 
A||o-x---x-x-x-x-x---x-x-x-x---|--x---x-x-x-x-x---x-x-----1-------| 
E||--2---2-2-x-x-2---2-2-x-x---|--2---2-2-x-x-2---2-2-0-2---0-3---| 

  4/4 
    Q     Q     Q     Q          Q     E E E Q     E+E E  (x2) 
e|----------------------------|----------------------------|| 
B|----------------------------|---------------------------o|| 
G|----------------------------|----------------------------|| 
D|----------------------------|-/5~----4-------------------|| 
A|--------------4-----5-------|----------5-------------1--o|| 
E|--2-----3-------------------|------------4-3~----0-------|| 


Acoustic Break 
  Gtr 4 
    E+E E E(E+E E)E+E E(E+E)     E+E E E(E+E E)E+E E(E+E)   
e|--2---2-2-------2---2-------|--2---2-2-------2---2-------| 
B|--2---2-2-------2---2-------|--2---2-2-------2---2-------| 
G|--2---2-2-------2---2-------|--2---2-2-------2---2-------| 
D|--4---4-4-------4---4-------|--4---4-4-------4---4-------| 
A|--4---4-4-------4---4-------|--4---4-4-------4---4-------| 
E|--2---2-2-------2---2-------|--2---2-2-------2---2-------| 


    E+E E E(E+E E)E+E E(E+E)     E+E E E(E+E E)E+E E(E+E)   
e|--7---7-7-------7---7-------|--7---7-7-------7---7-------| 
B|--7---7-7-------7---7-------|--7---7-7-------7---7-------| 
G|--7---7-7-------7---7-------|--7---7-7-------7---7-------| 
D|--9---9-9-------9---9-------|--9---9-9-------9---9-------| 
A|--9---9-9-------9---9-------|--9---9-9-------9---9-------| 
E|--7---7-7-------7---7-------|--7---7-7-------7---7-------| 


    E +E E  E (E+E E)E +E E (E+E)     E +E E  E (E+E E)E +E E (E+E)   
e|--8----8--8--------8----8--------|--8----8--8--------8----8--------| 
B|--8----8--8--------8----8--------|--8----8--8--------8----8--------| 
G|--9----9--9--------9----9--------|--9----9--9--------9----9--------| 
D|--10---10-10-------10---10-------|--10---10-10-------10---10-------| 
A|--10---10-10-------10---10-------|--10---10-10-------10---10-------| 
E|--8----8--8--------8----8--------|--8----8--8--------8----8--------| 


    E+E E E(E+E E)E+E E(E+E)     E+E E E(E+E E)E+E E(E+E)   
e|--5---5-5-------5---5-------|--5---5-5-------5---5-------| 
B|--5---5-5-------5---5-------|--5---5-5-------5---5-------| 
G|--7---7-7-------7---7-------|--6---6-6-------6---6-------| 
D|--7---7-7-------7---7-------|--7---7-7-------7---7-------| 
A|--7---7-7-------7---7-------|--7---7-7-------7---7-------| 
E|--5---5-5-------5---5-------|--5---5-5-------5---5-------| 


    E+E E E(E+E E)E+E E(E+E)     E+E E E(E+E E)E+E E(E+E)   
e|--5---5-5-------5---5-------|--5---5-5-------5---5-------| 
B|--5---5-5-------5---5-------|--5---5-5-------5---5-------| 
G|--5---5-5-------5---5-------|--5---5-5-------5---5-------| 
D|--7---7-7-------7---7-------|--7---7-7-------7---7-------| 
A|--7---7-7-------7---7-------|--7---7-7-------7---7-------| 
E|--5---5-5-------5---5-------|--5---5-5-------5---5-------| 


    E+E E E(E+E E)E+E E(E+E)     E+E E E(E+E E)E+E E(E+E)   
e|--4---4-4-------4---4-------|--4---4-4-------4---4-------| 
B|--4---4-4-------4---4-------|--4---4-4-------4---4-------| 
G|--5---5-5-------5---5-------|--5---5-5-------5---5-------| 
D|--6---6-6-------6---6-------|--6---6-6-------6---6-------| 
A|--6---6-6-------6---6-------|--6---6-6-------6---6-------| 
E|--4---4-4-------4---4-------|--4---4-4-------4---4-------| 


    E+E E E(E+E E)E+E E(E+E)     E+E E E(E+E E)E+E E(E+E)   
e|--3---3-3-------3---3-------|--3---3-3-------3---3-------| 
B|--4---4-4-------4---4-------|--4---4-4-------4---4-------| 
G|--5---5-5-------5---5-------|--5---5-5-------5---5-------| 
D|--5---5-5-------5---5-------|--5---5-5-------5---5-------| 
A|--3---3-3-------3---3-------|--3---3-3-------3---3-------| 
E|----------------------------|----------------------------| 


    E+E E E(E+E E)E+E E(E+E)     E+E E E(E+E E)E+E E(E+E)   
e|--2---2-2-------2---2-------|--2---2-2-------2---2-------| 
B|--2---2-2-------2---2-------|--2---2-2-------2---2-------| 
G|--3---3-3-------3---3-------|--3---3-3-------3---3-------| 
D|--4---4-4-------4---4-------|--4---4-4-------4---4-------| 
A|--4---4-4-------4---4-------|--4---4-4-------4---4-------| 
E|--2---2-2-------2---2-------|--2---2-2-------2---2-------| 


Solo 
- Gtr 2 plays the solo, haven't been able to figure it out yet. 

  Gtr 4 
    E+E E E(E+E E)E+E E(E+E)     E+E E E(E+E E)E+E E(E+E)   
e|--2---2-2-------2---2-------|--2---2-2-------2---2-------| 
B|--2---2-2-------2---2-------|--2---2-2-------2---2-------| 
G|--2---2-2-------2---2-------|--2---2-2-------2---2-------| 
D|--4---4-4-------4---4-------|--4---4-4-------4---4-------| 
A|--4---4-4-------4---4-------|--4---4-4-------4---4-------| 
E|--2---2-2-------2---2-------|--2---2-2-------2---2-------| 


    E+E E E(E+E E)E+E E(E+E)     E+E E E(E+E E)E+E E(E+E)   
e|--7---7-7-------7---7-------|--7---7-7-------7---7-------| 
B|--7---7-7-------7---7-------|--7---7-7-------7---7-------| 
G|--7---7-7-------7---7-------|--7---7-7-------7---7-------| 
D|--9---9-9-------9---9-------|--9---9-9-------9---9-------| 
A|--9---9-9-------9---9-------|--9---9-9-------9---9-------| 
E|--7---7-7-------7---7-------|--7---7-7-------7---7-------| 


    E +E E  E (E+E E)E +E E (E+E)     E +E E  E (E+E E)E +E E (E+E)   
e|--8----8--8--------8----8--------|--8----8--8--------8----8--------| 
B|--8----8--8--------8----8--------|--8----8--8--------8----8--------| 
G|--9----9--9--------9----9--------|--9----9--9--------9----9--------| 
D|--10---10-10-------10---10-------|--10---10-10-------10---10-------| 
A|--10---10-10-------10---10-------|--10---10-10-------10---10-------| 
E|--8----8--8--------8----8--------|--8----8--8--------8----8--------| 


    E+E E E(E+E E)E+E E(E+E)     E+E E E(E+E E)E+E E(E+E)   
e|--5---5-5-------5---5-------|--5---5-5-------5---5-------| 
B|--5---5-5-------5---5-------|--5---5-5-------5---5-------| 
G|--7---7-7-------7---7-------|--6---6-6-------6---6-------| 
D|--7---7-7-------7---7-------|--7---7-7-------7---7-------| 
A|--7---7-7-------7---7-------|--7---7-7-------7---7-------| 
E|--5---5-5-------5---5-------|--5---5-5-------5---5-------| 


    E+E E E(E+E E)E+E E(E+E)     E+E E E(E+E E)E+E E(E+E)   
e|--5---5-5-------5---5-------|--5---5-5-------5---5-------| 
B|--5---5-5-------5---5-------|--5---5-5-------5---5-------| 
G|--5---5-5-------5---5-------|--5---5-5-------5---5-------| 
D|--7---7-7-------7---7-------|--7---7-7-------7---7-------| 
A|--7---7-7-------7---7-------|--7---7-7-------7---7-------| 
E|--5---5-5-------5---5-------|--5---5-5-------5---5-------| 


    E+E E E(E+E E)E+E E(E+E)     E+E E E(E+E E)E+E E(E+E)   
e|--4---4-4-------4---4-------|--4---4-4-------4---4-------| 
B|--4---4-4-------4---4-------|--4---4-4-------4---4-------| 
G|--5---5-5-------5---5-------|--5---5-5-------5---5-------| 
D|--6---6-6-------6---6-------|--6---6-6-------6---6-------| 
A|--6---6-6-------6---6-------|--6---6-6-------6---6-------| 
E|--4---4-4-------4---4-------|--4---4-4-------4---4-------| 


    E+E E E(E+E E)E+E E(E+E)     E+E E E(E+E E)E+E E(E+E)   
e|--3---3-3-------3---3-------|--3---3-3-------3---3-------| 
B|--4---4-4-------4---4-------|--4---4-4-------4---4-------| 
G|--5---5-5-------5---5-------|--5---5-5-------5---5-------| 
D|--5---5-5-------5---5-------|--5---5-5-------5---5-------| 
A|--3---3-3-------3---3-------|--3---3-3-------3---3-------| 
E|----------------------------|----------------------------| 


    E+E E E(E+E E)E+E E(E+E)     E+E E E(E+E E)E+E E(E+E)   
e|--2---2-2-------2---2-------|--2---2-2-------2---2-------| 
B|--2---2-2-------2---2-------|--2---2-2-------2---2-------| 
G|--3---3-3-------3---3-------|--3---3-3-------3---3-------| 
D|--4---4-4-------4---4-------|--4---4-4-------4---4-------| 
A|--4---4-4-------4---4-------|--4---4-4-------4---4-------| 
E|--2---2-2-------2---2-------|--2---2-2-------2---2-------| 


Post-Solo 
- Gtr 2's part isn't 100% correct here, and will hopefully be updated when the song  
  is played live. 

  Gtr 1 
    Q   Q   Q   Q        Q   Q   Q   Q        H       H            H       H 
e|--------------------|--------------------|--------------------|--------------------| 
B|--------------------|--------------------|--------------------|--------------------| 
G|--------------------|--------------------|--------------------|--------------------| 
D|--------------------|--------------------|--------------------|--2-----------------| 
A|--------------------|------5---7---9-----|--8~----------------|--------------------| 
E|--0---2---3---5-----|--7-----------------|----------1---------|----------0---------| 
 |                    |                    |                    |                    | 
 |Gtr 2               |                    |                    |                    | 
 |  Q   Q   Q   Q     |  Q   Q   Q   Q     |  H       H         |  W                 | 
e|--------------------|--------------------|--------------------|--0-----------------| 
B|--------------------|--------------------|--------------------|--0-----------------| 
G|--------------------|--------------------|--------------------|--x-----------------| 
D|--------------------|--------------------|--------------------|--2-----------------| 
A|--------------------|------5---7---9-----|--8~----------------|--2-----------------| 
E|--0---2---3---5-----|--7-----------------|----------1---------|--0-----------------| 


    H       H            H       H            H       H            - 
e|--------------------|--------------------|--------------------|--------------------| 
B|--------------------|--------------------|--------------------|--------------------| 
G|--------------------|--------------------|--------------------|--------------------| 
D|--1-----------------|--0-----------------|--------------------|--------------------| 
A|--------------------|--------------------|--------------------|--------------------| 
E|----------3---------|----------2---------|--1-------0---------|--5~----------------| 
 |                    |                    |                    |                    | 
 |  H       H         |  H       H         |  H       H         |  H       -         | 
e|--------------------|--------------------|----------0---------|--5-----------------| 
B|--------------------|--------------------|----------0---------|--5-------7---------| 
G|--------------------|--------------------|----------x---------|--x-------8---------| 
D|--1-----------------|--0-----------------|--3-------2---------|--7-------7---------| 
A|--------------------|--------------------|--3-------2---------|--7-------6---------| 
E|----------3---------|----------2---------|--1-------0---------|--5~----------------| 


Pre-Verse 
- No longer in triplet feel (straight eighth notes) 

  Gtr 4 
    E E E E E E E E      E E E E E E E E      E E E E E E E E      E E E E E E E E 
e|----------0---------|----------0---------|----------0---------|----------0---------| 
B|------3-----3---3---|------3-----3---3---|------3-----3---3---|------3-----3---3---| 
G|----0---0-----0-----|----0---0-----0-----|----0---0-----0-----|----0---0-----0-----| 
D|--2-----------------|--2-----------------|--2-----------------|--2-----------------| 
A|--------------------|--------------------|--------------------|--------------------| 
E|--------------------|--------------------|--------------------|--------------------| 
 |                    |                    |                    |                    | 
 |Gtr 5               |                    |                    |                    | 
 |  E E E E E E E E   |  E E E E E E E E   |  E E E E E E E E   |  E E E E E E E E   | 
e|------7---7---------|------7---7---------|------7---7---------|------7---7---------| 
B|----8---8---8---8---|----8---8---8---8---|----8---8---8---8---|----8---8---8---8---| 
G|--------------9-----|--------------9-----|--------------9-----|--------------9-----| 
D|--------------------|--------------------|--------------------|--------------------| 
A|--7-----------------|--7-----------------|--7-----------------|--7-----------------| 
E|--------------------|--------------------|--------------------|--------------------| 


    E E E E E E E E      E E E E E E E E      E E E E E E E E     
e|----------0---------|----------0---------|----------0---------| 
B|------3-----3---3---|------3-----3---3---|------3-----3---3---| 
G|----0---0-----0-----|----0---0-----0-----|----0---0-----0-----| 
D|--2-----------------|--2-----------------|--2-----------------| 
A|--------------------|--------------------|--------------------| 
E|--------------------|--------------------|--------------------| 
 |                    |                    |                    | 
 |  E E E E E E E E   |  E E E E E E E E   |  E E E E E E E E   | 
e|------7---7---------|------7---7---------|------7---7---------| 
B|----8---8---8---8---|----8---8---8---8---|----8---8---8---8---| 
G|--------------9-----|--------------9-----|--------------9-----| 
D|--------------------|--------------------|--------------------| 
A|--7-----------------|--7-----------------|--7-----------------| 
E|--------------------|--------------------|--------------------| 


verse 1 
   Gtr 4 
     E E E E E E E E      E E E E E E E E      E E E E E E E E      E E E E E E E E  (x3) 
e||----------0---------|----------0---------|----------0---------|----------0---------|| 
B||o-----3-----3---3---|------3-----3---3---|------3-----3---3---|------3-----3---3--o|| 
G||----0---0-----0-----|----0---0-----0-----|----0---0-----0-----|----0---0-----0-----|| 
D||--2-----------------|--2-----------------|--2-----------------|--2-----------------|| 
A||o-------------------|--------------------|--------------------|-------------------o|| 
E||--------------------|--------------------|--------------------|--------------------|| 
 ||                    |                    |                    |                    || 
 ||Gtr 5               |                    |                    |                    || 
 ||  E E E E E E E E   |  E E E E E E E E   |  E E E E E E E E   |  E E E E E E E E   || 
e||------7---7---------|------7---7---------|------7---7---------|------7---7---------|| 
B||o---8---8---8---8---|----8---8---8---8---|----8---8---8---8---|----8---8---8---8--o|| 
G||--------------9-----|--------------9-----|--------------9-----|--------------9-----|| 
D||--------------------|--------------------|--------------------|--------------------|| 
A||o-7-----------------|--7-----------------|--7-----------------|--7----------------o|| 
E||--------------------|--------------------|--------------------|--------------------|| 


Acoustic Interlude 
   Gtr 4 
     E E E E E E E E      E E E E E E E E      E E E E E E E E      E E E E E E E E  (x2) 
e||----------0---------|----------0---------|----------0---------|----------0---------|| 
B||o-----3-----3---3---|------3-----3---3---|------3-----3---3---|------3-----3---3--o|| 
G||----0---0-----0-----|----0---0-----0-----|----0---0-----0-----|----0---0-----0-----|| 
D||--2-----------------|--2-----------------|--2-----------------|--2-----------------|| 
A||o-------------------|--------------------|--------------------|-------------------o|| 
E||--------------------|--------------------|--------------------|--------------------|| 
 ||                    |                    |                    |                    || 
 ||Gtr 5               |                    |                    |                    || 
 ||  E E E E E E E E   |  E E E E E E E E   |  E E E E E E E E   |  E E E E E E E E   || 
e||------7---7---------|------7---7---------|------7---7---------|------7---7---------|| 
B||o---8---8---8---8---|----8---8---8---8---|----8---8---8---8---|----8---8---8---8--o|| 
G||--------------9-----|--------------9-----|--------------9-----|--------------9-----|| 
D||--------------------|--------------------|--------------------|--------------------|| 
A||o-7-----------------|--7-----------------|--7-----------------|--7----------------o|| 
E||--------------------|--------------------|--------------------|--------------------|| 


  Gtr 4 & 5 
    E E E E E E E E      E E E E E E E E      E E E E E E E E      E E E E E E E E      E E E E E E E(E) 
e|--------------------|--------------------|--------------------|--------------3\2---|-p0-----------------| 
B|----------3---------|----------3---------|----------3---------|--------2-3/5-------|----3---------------| 
G|------0-----0---0---|------0-----0---0---|------0-----0---0---|------2-------------|------2p0-----------| 
D|----2---2-----2-----|----0---0-----0-----|----0---0-----0-----|----2---------------|----------4p2-------| 
A|--3-----------------|--2-----------------|--1-----------------|--0-----------------|--------------0-----| 
E|--------------------|--------------------|--------------------|--------------------|--------------------| 


   Gtr 4 
     E E E E E E E E      E E E E E E E E      E E E E E E E E      E E E E E E E E  (x2) 
e||----------0---------|----------0---------|----------0---------|----------0---------|| 
B||o-----3-----3---3---|------3-----3---3---|------3-----3---3---|------3-----3---3--o|| 
G||----0---0-----0-----|----0---0-----0-----|----0---0-----0-----|----0---0-----0-----|| 
D||--2-----------------|--2-----------------|--2-----------------|--2-----------------|| 
A||o-------------------|--------------------|--------------------|-------------------o|| 
E||--------------------|--------------------|--------------------|--------------------|| 
 ||                    |                    |                    |                    || 
 ||Gtr 5               |                    |                    |                    || 
 ||  E E E E E E E E   |  E E E E E E E E   |  E E E E E E E E   |  E E E E E E E E   || 
e||------7---7---------|------7---7---------|------7---7---------|------7---7---------|| 
B||o---8---8---8---8---|----8---8---8---8---|----8---8---8---8---|----8---8---8---8--o|| 
G||--------------9-----|--------------9-----|--------------9-----|--------------9-----|| 
D||--------------------|--------------------|--------------------|--------------------|| 
A||o-7-----------------|--7-----------------|--7-----------------|--7----------------o|| 
E||--------------------|--------------------|--------------------|--------------------|| 


Riff 
  Gtr 1 & 2 
    E E E E H            E E E E E  E Q        E E E E H            E E E E E  E Q 
e|--------------------|---------------------|--------------------|---------------------| 
B|--------------------|---------------------|--------------------|---------------------| 
G|--------------------|---------------------|--------------------|---------------------| 
D|--------------------|---------------------|--------------------|---------------------| 
A|--------5-7~--------|--------7/10\7-9~----|--------5-7~--------|--------7/10\7-9~----| 
E|--0-2-3-------------|--0-2-3--------------|--0-2-3-------------|--0-2-3--------------| 


verse 2 
  Gtr 1 & 2 
     E E E E H            E E E E E  E Q        E E E E H            E E E E E  E Q    (x2) 
e||--------------------|---------------------|--------------------|---------------------|| 
B||o-------------------|---------------------|--------------------|--------------------o|| 
G||--------------------|---------------------|--------------------|---------------------|| 
D||--------------------|---------------------|--------------------|---------------------|| 
A||o-------5-7~--------|--------7/10\7-9~----|--------5-7~--------|--------7/10\7-9~---o|| 
E||--0-2-3-------------|--0-2-3--------------|--0-2-3-------------|--0-2-3--------------|| 


    H       H            H       H 
e|--3-------5---------|--5-----------------| 
B|--3-------5---------|--5-------8---------| 
G|--5-------7---------|--5-------8---------| 
D|--5-------7---------|--7-------7---------| 
A|--3-------5---------|--7-------6---------| 
E|--3-------5---------|--5-----------------| 


    E E E E H            E E E E E  E Q        E E E E H            E E E E E  E Q 
e|--------------------|---------------------|--------------------|---------------------| 
B|--------------------|---------------------|--------------------|---------------------| 
G|--------------------|---------------------|--------------------|---------------------| 
D|--------------------|---------------------|--------------------|---------------------| 
A|--------5-7~--------|--------7/10\7-9~----|--------5-7~--------|--------7/10\7-9~----| 
E|--0-2-3-------------|--0-2-3--------------|--0-2-3-------------|--0-2-3--------------| 


verse 3 
  Gtr 1 & 2 
     E E E E H            E E E E E  E Q        E E E E H            E E E E E  E Q    (x2) 
e||--------------------|---------------------|--------------------|---------------------|| 
B||o-------------------|---------------------|--------------------|--------------------o|| 
G||--------------------|---------------------|--------------------|---------------------|| 
D||--------------------|---------------------|--------------------|---------------------|| 
A||o-------5-7~--------|--------7/10\7-9~----|--------5-7~--------|--------7/10\7-9~---o|| 
E||--0-2-3-------------|--0-2-3--------------|--0-2-3-------------|--0-2-3--------------|| 


    H       H            H       H 
e|--3-------5---------|--5-----------------| 
B|--3-------5---------|--5-------8---------| 
G|--5-------7---------|--5-------8---------| 
D|--5-------7---------|--7-------7---------| 
A|--3-------5---------|--7-------6---------| 
E|--3-------5---------|--5-----------------| 


Chorus 
  Gtr 2 
    E E Q   H           +W                    E E Q   H           +W 
e|--------------------|--------------------|--------------------|--------------------| 
B|--------------------|--------------------|--------------------|--------------------|  Gtr 3 also starts 
G|------4---6~--------|--------------------|------3---5~--------|--------------------|   fading in with:  
D|----5---------------|--------------------|----4---------------|--------------------| 
A|--4-----------------|--------------------|--3-----------------|--------------------|     e|--------| 
E|--------------------|--------------------|--------------------|--------------------|     B|--------| 
 |                    |                    |                    |                    |     G|--6~----| 
 |Gtr 4               |                    |                    |                    |     D|--------| 
 |  E E E E Q   E E   |  E E E E Q   E E   |  E E E E Q   E E   |  E E E E Q   E E   |     A|--------| 
e|----------0---------|----------0---------|----------0---------|----------0---------|     E|--------| 
B|--------------------|--------------------|--------------------|--------------------| 
G|------4-------4-----|------4-------4-----|------3-------3-----|------3-------3-----| 
D|----5---5-------5---|----5---5-------5---|----4---4-------4---|----4---4-------4---| 
A|--4-----------------|--4-----------------|--3-----------------|--3-----------------| 
E|--------------------|--------------------|--------------------|--------------------| 


  Gtr 1 
    W                   +W                    W                    H       H 
e|--------------------|--------------------|--------------------|--------------------| 
B|--------------------|--------------------|--------------------|--------------------| 
G|--2-----------------|--------------------|--4-----------------|--4-----------------| 
D|--2-----------------|--------------------|--4-----------------|--4-----------------| 
A|--0-----------------|--------------------|--2-----------------|--2-----------------| 
E|--------------------|--------------------|--------------------|---------/7~--------| 
 |                    |                    |                    |                    | 
 |Gtr 2 & 3           |                    |                    |                    | 
 |  W                 | +W                 |  W                 |  W                 | 
e|--------------------|--------------------|--------------------|--------------------| 
B|--------------------|--------------------|--------------------|--------------------| 
G|--6~----------------|--------------------|--9~----------------|--8~----------------| 
D|--------------------|--------------------|--------------------|--------------------| 
A|--------------------|--------------------|--------------------|--------------------| 
E|--------------------|--------------------|--------------------|--------------------| 


    W                    W                     W                   +Q.    E E Q. 
e|--------------------|---------------------|--------------------|--------------------| 
B|--------------------|---------------------|--------------------|--------------------| 
G|--5-----------------|--7------------------|--2-----------------|--------------------| 
D|--5-----------------|--7------------------|--2-----------------|--------------------| 
A|--3-----------------|--5------------------|--0-----------------|----------5\3-------| 
E|--------------------|---------------------|--------------------|--------0-3\1-------| 
PM                    |                     |                    |        .           | 
 |                    |                     |                    |                    | 
 |  W                 |  H.         +E E    |  H.         +E E   |  E E E E Q.    E   | 
e|--------------------|---------------------|--------------------|--------------------| 
B|--------------------|---------------------|--------------------|--------------------| 
G|--12~---------------|--11~----------/12\--|--9~------------6---|-/7\5/2/4/5~----7---| 
D|--------------------|---------------------|--------------------|--------------------| 
A|--------------------|---------------------|--------------------|--------------------| 
E|--------------------|---------------------|--------------------|--------------------| 


    W                   +W                    W                    H       H 
e|--------------------|--------------------|--------------------|--------------------| 
B|--------------------|--------------------|--------------------|--------------------| 
G|--2-----------------|--------------------|--4-----------------|--4-----------------| 
D|--2-----------------|--------------------|--4-----------------|--4-----------------| 
A|--0-----------------|--------------------|--2-----------------|--2-----------------| 
E|--------------------|--------------------|--------------------|---------/7~--------| 
 |                    |                    |                    |                    | 
 |  W                 | +H       H         |  W                 |  W                 | 
e|--------------------|--------------------|--------------------|--------------------| 
B|--------------------|--------------------|--------------------|--------------------| 
G|--6~----------------|----------9/--------|--9~----------------|--8~----------------| 
D|--------------------|--------------------|--------------------|--------------------| 
A|--------------------|--------------------|--------------------|--------------------| 
E|--------------------|--------------------|--------------------|--------------------| 


    W                    W                     W                   +Q.    E E Q. 
e|--------------------|---------------------|--------------------|--------------------| 
B|--------------------|---------------------|--------------------|--------------------| 
G|--5-----------------|--7------------------|--2-----------------|--------------------| 
D|--5-----------------|--7------------------|--2-----------------|--------------------| 
A|--3-----------------|--5------------------|--0-----------------|----------5\3-------| 
E|--------------------|---------------------|--------------------|--------0-3\1-------| 
PM                    |                     |                    |        .           | 
 |                    |                     |                    |                    | 
 |  W                 |  H.         +E E    |  H.         +E E   |  E E E E H         |  H       H          
e|--------------------|---------------------|--------------------|--------------------|--------------------| 
B|--------------------|---------------------|--------------------|--------------------|--------------------| 
G|--9~----------------|--11~----------/12\--|--9~------------6---|-/7\5/2/4/5~--------|--9~------9/--------| 
D|--------------------|---------------------|--------------------|--------------------|--------------------| 
A|--------------------|---------------------|--------------------|--------------------|--------------------| 
E|--------------------|---------------------|--------------------|--------------------|--------------------| 


Post-Chorus 
  Gtr 1 & 2 
    Q.    E E E  E E      H       Q   E E      Q.    E H            E E H. 
e|---------------------|--------------------|--------------------|--------------------| 
B|---------------------|--------------------|--------------------|--------------------| 
G|---------------------|--------------------|--------------------|--------------------| 
D|---------------------|----------------6---|--9~----8-6~--------|--6h7-7~------------| 
A|---------------------|--------------7-----|--------------------|--------------------| 
E|--0-----0-8/11-6-8---|--9~------8---------|--------------------|--------------------| 


    Q    E  E Q   Q        E E Q   Q.    E      E E Q   H            Q   Q  +E E E E 
e|----------------------|--------------------|--------------------|--------------------| 
B|----------------------|--------------------|--------------------|--------------------| 
G|----------------------|--------------------|--------------------|--------------------| 
D|-/11---10-7-----------|--5---5---5~--------|--5h6-6-------------|--------------------| 
A|------------6---7-----|----7-----------7---|--------------------|--------------------| 
E|----------------------|--------------------|----------0---------|-/6--/6~----5-1-5---| 


     Q.    E E E  E E      H       Q   E E      Q.    E H            E E H. 
e||---------------------|--------------------|--------------------|--------------------| 
B||o--------------------|--------------------|--------------------|--------------------| 
G||---------------------|--------------------|--------------------|--------------------| 
D||---------------------|----------------6---|--9~----8-6~--------|--6h7-7~------------| 
A||o--------------------|--------------7-----|--------------------|--------------------| 
E||--1-----0-8/11-6-8---|--9~------8---------|--------------------|--------------------| 


    Q    E  E Q   Q        E E Q   Q.    E      E E Q   H            Q   Q  +E E E E  (x2) 
e|----------------------|--------------------|--------------------|--------------------|| 
B|----------------------|--------------------|--------------------|-------------------o|| 
G|----------------------|--------------------|--------------------|--------------------|| 
D|-/11---10-7-----------|--5---5---5~--------|--5h6-6-------------|--------------------|| 
A|------------6---7-----|----7-----------7---|--------------------|-------------------o|| 
E|----------------------|--------------------|----------0---------|-/6--/6~----5-1-5---|| 


Outro 
  Gtr 4 
     E E E E E E E E      E E E E E E E E      E E E E E E E E      E E E E E E E E  (x...) 
e||--3-----------------|--------------------|--3-----------------|--------------------|| 
B||o-4p3p0---6-----5---|------4-----2-------|--4p3p0---6-----5---|------4-----2------o|| 
G||--0---------4-------|--4-----0-----0-----|--0---------4-------|--4-----0-----0-----|| 
D||--------------------|--------------------|--------------------|--------------------|| 
A||o-------------------|--------------------|--------------------|-------------------o|| 
E||--------0-----0-----|----0-----0-----0---|--------0-----0-----|----0-----0-----0---|| 


************************************ 

|  ~   Vibrato 
|  \   Slide down 
|  /   Slide up 
|  x   Dead note 
|  h   Hammer-on 
|  p   Pull-off 
| PM   Palm-mute 
|  E   Eighth note 
|  Q   Quarter note 
|  H   Half note 
|  W   Whole note 
|  .   Dotted note 
| (N)  Rest 
|  +   Add note value 
|o o|  Reprise 

************************************ 
		  

Full key step upFull key step up
Half key step upHalf key step up
Half key step downHalf key step down
Full key step downFull key step down
hide glossary

See also:

tabs Refused - Dawkins Christ tabs Royal Republic - Full Steam Spacemachine tabs Opeth - Slither tabs Änglagård - Jordrök tabs Opeth - Wreath tabs Evergrey - Blinded (Intro)
e-chords

Other versions:

tabs Opeth - Dignity
auto scroll beats size up size down change color hide chords drawings
tab show chords e-chords YouTube Clip e-chords hide all tabs e-chords go to top tab

share