Opeth

Beneath The Mire

Opeth

tabs

by  ANDRSOUZA

save to print version add songbook text version e-mail correct tuner
chordsukulelecavacokeyboardtabbassdrumsharmonicaflute Guitar Pro
close

there isn't a video lesson for this song

chords

Beneath The Mire

	  		

                                       pm-   
e|-------------------------------------------------------| 
B|10-10-10-10---(5-5-5-5)--------------------------------| 
G|-7--7--7--7----7-7-7-7----(10-10-10-10)----------------| 
D|-0--0--0--0----6-6-6-6------9--9--9--9---(8-8-8)-------| 
A|----------------------------8--8--8--8-----------------| 
E|------------------------------------------9-9-9-10-0-0-| 

                                                     pm-   
e|(0--0--0--0)-------------------------------------------| 
B|10-10-10-10---(5-5-5-5)--------------------------------| 
G|-7--7--7--7----7-7-7-7-----(7-7-7-7)-------------------| 
D|-0--0--0--0----6-6-6-6------9-9-9-9------(8-8-8)-------| 
A|----------------------------8-8-8-8--------------------| 
E|------------------------------------------9-9-9-10-0-0-| 

                                                     pm-   
e|-------------------------------------------------------| 
B|10-10-10-10---(5-5-5-5)--------------------------------| 
G|-7--7--7--7----7-7-7-7----(10-10-10-10)----------------| 
D|-0--0--0--0----6-6-6-6------9--9--9--9---(8-8-8)-------| 
A|----------------------------8--8--8--8-----------------| 
E|------------------------------------------9-9-9-10-0-0-| 
          
                                                     pm- 
e|-5-5-5-5-----------------------------------------------| 
B|(6-6-6-6)-----(4-4-4-4)-------(5-5-5-5)----------------| 
G|-7-7-7-7-------7-7-7-7--------(7-7-7-7)----------------| 
D|-0-0-0-0-------6-6-6-6---------9-9-9-9---(8-8-8)-------| 
A|-------------------------------8-8-8-8-----------------| 
E|------------------------------------------9-9-9-10-0-0-| 

Riff  A  

e|0--0-0-0-0-0--0-0-0-0-0-0-0-0-0-0-0-0-0-0-0--0-0-0-0-0-0-0-0-| 
B|3--3-3-3-3-3--3-3-3-3-3/5-5-5-5/6-6-6-6-6-6--6-6-6-6-6/8-8-8-| 
G|2--2-2-2-2-2--2-2-2-2-2/4-4-4-4/5-5-5-5-5-5--5-5-5-5-5/7-7-7-| 
D|0--0-0-0-0-0--0-0-0-0-0-0-0-0-0-0-0-0-0-0-0--0-0-0-0-0-0-0-0-| 
A|-------------------------------------------------------------| 
E|-------------------------------------------------------------| 

e|0-0-0-0-0-0-0--0-0-0-0-0-0-0-0-0-----------------------------| 
B|8\5-5-5-5-5-5--5-5-5-5-5/6-6-6-3-----------------------------| 
G|7\4-4-4-4-4-4--4-4-4-4-4/5-5-5-2---0h2--2--------------------| 
D|0-0-0-0-0-0-0--0-0-0-0-0-0-0-0-0----------3-0h2--2-----------| 
A|---------------------------------------------------3--0------| 
E|-------------------------------------------------------------| 

next, repeat the intro but end with: 

e|------------------------5-5-5-5-| 
B|10-10-10-10---3-3-3-3---3-3-3-3-| 
G|-7--7--7--7---1-1-1-1---2-2-2-2-| 
D|-0--0--0--0---0-0-0-0---0-0-0-0-| 
A|--------------------------------| 
E|--------------------------------| 

Riff  B  
                                                  pm------------- 
e|-------------------------------------7-(7)----------------------| 
B|----------------------------------------6-----------------------| 
G|-------------------------------------------7--------------------| 
D|5-5-4-4---2-2-1-1-----------------------------------------------| 
A|6-6-5-5---3-3-2-2---/7-7h8-8-6-7--------------------------------| 
E|6-6-5-5---3-3-2-2----0-0-0-0-0-0---0------------0-0-0--0--0-0-0-| 

then the last time end with: 

  pm--------------------- 
e|--------------------------| 
B|--------------------------| 
G|--------------------------| 
D|------------------------5-| 
A|------------------5-6-7---| 
E|0-0-0--0--0-0-6-7---------| 

Riff  C  (you can play gtr. 1's part and add gtr. 2's  G  string notes) 
also, there's another guitar intermittently playing an open  G  string, 
not gonna tab that, but it's there...yeah.  and there's a little rhythm  
variation at the end but that doesn't need to be tabbed either. 

gtr. 1 

e|---------------------------------------------------------------------------| 
B|---------------------------------------------------------------------------| 
G|---------------------------------------------------------------------------| 
D|4-4-4-4--4-4-4-4--4-4-4-4--4-4-4-4--2-2-2-2--2-2-2-2--2-2-2-2--5-5-5-5-----| 
A|4-4-4-4--4-4-4-4--4-4-4-4--4-4-4-4--2-2-2-2--2-2-2-2--2-2-2-2--5-5-5-5-----| 
E|2-2-2-2--2-2-2-2--2-2-2-2--2-2-2-2--0-0-0-0--0-0-0-0--0-0-0-0--3-3-3-3-----| 
 |                                                                           | 
gtr. 2                                                                       | 
 |                                                                           | 
e|---------------------------------------------------------------------------| 
B|7-7-7-7--7-7-7-7--7-7-7-7--7-7-7-7--5-5-5-5--5-5-5-5--5-5-5-5--8-8-8-8-----| 
G|6-6-6-6--6-6-6-6--6-6-6-6--6-6-6-6--4-4-4-4--4-4-4-4--4-4-4-4--7-7-7-7-----| 
D|4-4-4-4--4-4-4-4--4-4-4-4--4-4-4-4--2-2-2-2--2-2-2-2--2-2-2-2--5-5-5-5-----| 
A|---------------------------------------------------------------------------| 
E|---------------------------------------------------------------------------| 


solo 1 (Riff  C  underneath) 

gtr. 1 

e|14-12-----12----------------------------------------------12-14------| 
B|------14-----14-12--14-12-----12-----------------12-14-15------------| 
G|--------------------------14-----14-13--11-13-14----------------13~~-| 
D|---------------------------------------------------------------------| 
A|---------------------------------------------------------------------| 
E|---------------------------------------------------------------------| 
 |                                                                     | 
gtr. 2                                                                 | 
 |                                                                     | 
e|17-16-14--16-14-----14---------------------------------14-16-17------| 
B|----------------17-----17-14--17-14-----------14-15-17----------14~~-| 
G|------------------------------------16--14-16------------------------| 
D|---------------------------------------------------------------------| 
A|---------------------------------------------------------------------| 
E|---------------------------------------------------------------------| 

now just guitar one: 

e|-------------------------------------------------------------------------| 
B|--9-7-9h10p9p7---7-------------------------------------------------------| 
G|---------------9---9-6-7~~h9p7p6h7p6---6---------------------------------| 
D|-------------------------------------9---9-7h9p7p6h7p6-------------------| 
A|-------------------------------------------------------9-7b(9)~~---------| 
E|-------------------------------------------------------------------------| 
  pm----------- 
e|-----------------------------------------------------7h9h10h12p10p9-9~~7-| 
B|--------------9-10-12-10h12p10p9h10p9----9~~-\7h9h10---------------------| 
G|-----------11-------------------------11---------------------------------| 
D|--------11---------------------------------------------------------------| 
A|9-11-12------------------------------------------------------------------| 
E|-------------------------------------------------------------------------| 

e|-------------------------------------------------------------------------| 
B|--12b(14)br12------------------------------------------------------------| 
G|-x-----------------------------------------------------------------------| 
D|x------------------------------------------------------------------------| 
A|-------------------------------------------------------------------------| 
E|-------------------------------------------------------------------------| 

little part after solo, over keyboards: 

e|------------------------------------------------------------|-------| 
B|------------------------------------------------------------|-------| 
G|------------------------------7--9--------------------------|-------| 
D|/9-9--9-7--\5-4--\2--1~~---/9------/7--5--/7--5--/9--4--6~~-|---0---| 
A|------------------------------------------------------------|-----7-| 
E|------------------------------------------------------------|-0-----| 

Riff  D  

e|-------------------------------------------| 
B|------7~~--------7~~--------7~~--------7~~-| 
G|------7~~--------7~~--------5~~--------5~~-| 
D|-------------------------------------------| 
A|7--7-------7--7-------7--7-------7--7------| 
E|0--0-------0--0-------0--0-------0--0------| 

solo 2  (doubled with same thing but an octave higher) 

e|---------------------------------------------------------------------------| 
B|----------------7~~--------------------------------------------------------| 
G|--------------------9-/12-11-9-11-----9-----9------------------------------| 
D|---------7h9h10-------------------9~~---9/7---7/5-4h5----------------------| 
A|7-7h9h10----------------------------------------------7~~-5h7--------------| 
E|--------------------------------------------------------------5/3----------| 
                                        v--- 
e|---------------------------------------------------------------------------| 
B|--------------------8p7------------------3~~--0-5-7-0-7-8-8b(10)~~---------| 
G|--------2h4/5~~-4-------7---------------4----------------------------------| 
D|------5-------------------7/9-7-\4~~---4-----------------------------------| 
A|0h2h3---------------------------------5------------------------------------| 
E|---------------------------------------------------------------------------| 

e|---------------------------------------------------------------------------| 
B|8h10p8\7-8-5--7----7--------------------------------------10---12b(13)br12-| 
G|----------------5----4---11b(12)-11--9-11b(12)-11--9----9----9-------------| 
D|-----------------------------------------------------10--------------------| 
A|---------------------------------------------------------------------------| 
E|-----------------------0---------------------------------------------------| 

e|----------------------------------------12----10---------------------------| 
B|10----10-----------10h11p8---8-10h11h12----12-----\10-8--------------------| 
G|---12----11-12-9~~---------9-----------------------------------------------| 
D|--------------------------------------------------------\7-5p4~~-----------| 
A|---------------------------------------------------------------------------| 
E|---------------------------------------------------------------------------| 

e|---------------------7-0-5--0-3--0-2---------------------------------------| 
B|5--0-7--0-7b(8)br7p5-----------------3----------------7h8p7---7------------| 
G|---------------------------------------2~~----------9-------9---8-9--------| 
D|--------------------------------------------------9------------------------| 
A|---------------------------------------------9h10--------------------------| 
E|---------------------------------------------------------------------------| 

e|-------7~~-----------------------------------------------------------------| 
B|7h8h10------10-8--7-8p7----------------------------------------------------| 
G|---------------------------------------------------------------------------| 
D|------------------------8~~------------------------------------------------| 
A|---------------------------------------------------------------------------| 
E|---------------------------------------------------------------------------| 

acoustic thing 

e|------0-----------0-------------0---------0-----| 
B|----8---8-------8---8---------5---5-----5---5---| 
G|--0-------0---0-------0-----0---------0-------0-| 
D|8-----------8-----------8\5---------5-----------| 
A|------------------------------------------------| 
E|------------------------------------------------| 

Riff  E                         (last time) 

e|--------------------------|--------------------------------| 
B|--------------------------|--------------------------------| 
G|--------------------------|--------------------------------| 
D|--------8~~---8\5~~---5~~-|--------8~~---8\5~~----5-5--5-5-| 
A|-----7-(7)----------4-----|-----7-(7)-----------4----------| 
E|/6~~---(6)----6\3~~-------|/6~~---(6)----6\3~~----3-3--3-3-| 

Riff  F  (i'm not tabbing the guitar that's just palm-muting an E power chord) 

gtr. 1 

e|---------------------------------------------------------------------------| 
B|---------------------------------------------------------------------------| 
G|12-12-12-7-7-7-6-6-6-3-3-3-6-6-6-7-7-7-3-3-3-6-6-6-7-7-7-9-9-9-(keep-------| 
D|----------------------------------------------------------------strumming)-| 
A|10-10-10-5-5-5-4-4-4-1-1-1-4-4-4-5-5-5-1-1-1-4-4-4-5-5-5-7-7-7-------------| 
E|---------------------------------------------------------------------------| 
 |                                                                           | 
gtr. 2                                                          last ending  | 
 |                                                               pm---       | 
e|-------------------------------------------------------------|-------------| 
B|-------------------------------------------------------------|-------------| 
G|-------------------------------------------------------------|-------9\----| 
D|14-14-14-9-9-9-8-8-8-5-5-5-8-8-8-9-9-9-5-5-5-8-8-8-9-9-9-----|-------------| 
A|-------------------------------------------------------------|-------7\----| 
E|12-12-12-7-7-7-6-6-6-3-3-3-6-6-6-7-7-7-3-3-3-6-6-6-7-7-7-0~~-|-0-0-0-------| 

transition riffs 
                   pm----------------------------------------- 
e|---------------------------------------------------------------------------| 
B|---------------------------------------------------------------------------| 
G|-------------8-9-----------------------------------------------------------| 
D|2-4-5-7-9-10-8-9-----------------------------------------------------------| 
A|2-4-5-7-9-10-6-7-----------------------------------------------------------| 
E|0-2-3-5-7--8-----0--0-0-0-0-0--0-0-0-0-0--0-0-0-0-0--0-0-0-0---------------| 

e|---------------------------------------------------------------------------| 
B|---------------------------------------------------------------------------| 
G|-------------9/11/12-/15--15-15-15-15-12--12-12-12-12----------------------| 
D|2-4-5-7-9-10------------------------------------------8--8-8-8-8-5--5-5-5-5| 
A|2-4-5-7-9-10-7/-9/10-/13--13-13-13-13-10--10-10-10-10-4--4-4-4-4-1--1-1-1-1| 
E|0-2-3-5-7--8------------------------------------------6--6-6-6-6-3--3-3-3-3| 


Riff  G  

gtr. 1 (eventually stops palm-muting) 
          pm-   pm   pm--     pm----- 
e|-----------------------------------------| 
B|-----------------------------------------| 
G|-----------------------------------------| 
D|-----------------------------------------| 
A|------------4---4-4----------------------| 
E|0h2-2-2-2-2-2-2-2-2-2-2-0h2-2-2-0-2-2/6~~| 
 |                                         | 
gtr. 2                                     | 
 |                                         | 
e|-----------------------------------------| 
B|-----------2----3~~----------------------| 
G|------0-3----3----------------0-4-3------| 
D|2/4-4-------------------2/4-4------------| 
A|------------------------------------/4~~-| 
E|-----------------------------------------| 

solo 3 (Riff  G  underneath) 

e|---------------------------------------------------------------------------| 
B|x--------------------------------------------------------------------------| 
G|x-9-11-9-11-11-11~~~-9-11p9----9-------------------------------------9-x---| 
D|x---------------------------11---11-10-11p10----10-----------------9-------| 
A|---------------------------------------------12----12-9\7h9-9-9-10---------| 
E|---------------------------------------------------------------------------| 
                   pm-------- 
e|----------------------------------------------------12-11----11------------| 
B|----------------------------------12----------------------14----14-10------| 
G|11b(12)~~br11~~-------------11/13----14-13-11-13-14------------------------| 
D|-------------------------11------------------------------------------------| 
A|-----------------9-11-12---------------------------------------------------| 
E|---------------------------------------------------------------------------| 

e|---------------------------------------------------------------------------| 
B|10h11-11-11-11p10----------------------------------------------------------| 
G|------------------11-11p9----9------11p9----9-------------9-9-9------------| 
D|--------------------------11---11-9------11---11-9-7h9/11-------10b(11)~~~-| 
A|---------------------------------------------------------------------------| 
E|---------------------------------------------------------------------------| 

e|---------------------------------------------------------------------------| 
B|---------------------------------------11----11-/14--14-14-----------------| 
G|---------ph---x---------9----9-11-9-11----11---------------16-15-16--------| 
D|9h11-9-7-9~~--x-11-9-11---11-----------------------------------------------| 
A|--------------x------------------------------------------------------------| 
E|---------------------------------------------------------------------------| 

e|--------------------------------------------14-15/18-15-19\--14-15p14-14---| 
B|14-15-17-15-17-17b(19)-17b(19)-17b(19)~~-----------------------------------| 
G|---------------------------------------------------------------------------| 
D|---------------------------------------------------------------------------| 
A|---------------------------------------------------------------------------| 
E|---------------------------------------------------------------------------| 

e|18p14-14-19p14-14-21p14-14-22p14-14-21p14-14-19p14-14-18p14-14-------------| 
B|---------------------------------------------------------------17b(19)~~~~-| 
G|---------------------------------------------------------------------------| 
D|---------------------------------------------------------------------------| 
A|---------------------------------------------------------------------------| 
E|---------------------------------------------------------------------------| 

outro riff 
                              pm---   pm------- 
e|----------------------------------------------| 
B|----------------------------------------------| 
G|----------------------------------------------| 
D|2-2----2-2----2-2----2-2----------------------| 
A|2-2----2-2----2-2----2-2--8-------7-----------| 
E|0-0----0-0----0-0----0-0----7-6-0---0-6-0-5-3-| 

 
		  

See also:

tabs Nomy - Spank My Ass tabs Royal Republic - Weekend Man tabs Royal Republic - Uh Huh tabs Royal Republic - Full Steam Spacemachine tabs Opeth - Cusp Of Eternity tabs Royal Republic - Baby
e-chords

Other versions:

tabs Opeth - Beneath The Mire
auto scroll beats size up size down change color hide chords drawings
tab show chords e-chords YouTube Clip e-chords hide all tabs e-chords go to top tab

share