One Dollar Short

Not Pretty Enough

One Dollar Short

tabs

save to print version add songbook text version e-mail correct tuner
chordsukulelecavacokeyboardtabbassdrumsharmonicaflute Guitar Pro
close

there isn't a video lesson for this song

chords

Not Pretty Enough

	  		Originally Tabbed by: Jim Hillis 3 ([email protected]) 
Intro Edited by: Shayne Pidding ([email protected]) 
 
 
Guitar One 
========== 
*Intro* 
e|----------2-----------4--------------------------------| 
B|-------------------------7--4-----------7-----------4--| 
G|-------4-----------4-----------------4-----------4-----| 
D|----4-----------4-----------------4-----------4--------| 
A|-2-----------------------------------------------------| 
E|-------------6-----------------4-----------0-----------| 
 
*Verse One and Chorus* 
e|---------------------| 
B|---------------------| 
G|-4----3--------------| 
D|-4----4----6----2----| 
A|-2----1----6----2----| 
E|-----------4----0----| 
 
*Verse 2* 
e|---------------------| 
B|---------------------| 
G|-4----6----8----9----| 
D|-4----6----9----9----| 
A|-2----4----6----7----| 
E|---------------------| 
 
*Solo* 
e|----------------------------------------------------------------------------------| 
B|-----------------------------------------------12---------------------------------| 
G|-8h9h8----8h9h11-9-8h9h8-----------8h9h8---8h9----9--8h9p8-/-11-9--8h9p8----------| 
D|-------9-----------------9---------------9--------------------------------/11--9--| 
A|-----------------------------9--7-------------------------------------------------| 
E|----------------------------------------------------------------------------------| 
 
 

		  

See also:

tabs Leonardo's Bride - Even When I'm Sleeping tabs Pete Murray - beautiful tabs Wolfmother - Colossal tabs Pete Murray - Tonic tabs The Veronicas - Speechless tabs The Vines - In The Jungle (ver. 1)
e-chords

Other versions:

tabs One Dollar Short - Not Pretty Enough
auto scroll beats size up size down change color hide chords drawings
tab show chords e-chords YouTube Clip e-chords hide all tabs e-chords go to top tab

share