Omul cu sobolani

Cine E De Vina

Omul cu sobolani

tabs Easy easy

by  RADU.DRAGOMIR1

save to print version add songbook text version e-mail correct tuner
chordsukulelecavacokeyboardtabbassdrumsharmonicaflute Guitar Pro
close

there isn't a video lesson for this song

chords

Cine E De Vina

	  		Verse 
Aseara m-am facut iar praf 
Cred ca e cazul sa ma trag pe nas 
Poate am exagerat 
Dar nu eu sunt cel vinovat 

Eu recunosc: imi place sa fac rau 
Ma pregatesc pt ce e mai greu 
Eu ma cunosc prea bine, 
Dar noaptea asta nu este de mine 
Nu este de mine 
Nu este de mine 

Chorus  

Azi iar o sa imi fac de cap 
Nici nu mai cred ca o sa scap 
Poate c-am exagerat, 
Poate am stat prea mult in cap 
Da' cine este vïnovatX4 
--3-3-2-3-3-3-3-3-------------------------------------------------------------- 
--3-3-3-3-3-3-3-3------------------------------------------------------------- 
--0-0-0-0-0-0-0-0--------------------------------------------------------------- 
--0-0-0-0-2-0-0-0--------------------------------------------------------------- 
--2-2-2-2-2-3-2-3--------------------------------------------------------------- 
--3---------------------------------------------------------------------- 


Chorus  *2 

Daca ploau ma imbrac in alb, 
Daca e vineri nu mai pot de cald. 
Port ochelari de soare 
E luna plina 
Cine e de vina? 


-----2--3----------------------------------------------------------------- 
--3--3--3------------------------------------------------------------------ 
--0--2--0------------------------------------------------------------------ 
--2-----0----------------------------------------------------------------- 
--3-----2----------------------------------------------------------------- 
--------3---------------------------------------------------------------- 
		  

auto scroll beats size up size down change color hide chords drawings
tab show chords e-chords YouTube Clip e-chords hide all tabs e-chords go to top tab

share