Olivier Hecho

home > Olivier Hecho

Hallelujah Tab

Olivier Hecho

Difficulty: ExpertExpert

by jessgomes

tuner correct add songbook print version text version save to e-mail
chordsukulelecavacokeyboardtabbassdrumsharmonicsflute Guitar Pro
chords

Hallelujah

	   
E|-------3----------3---------3------------------------------- 
B|--------------1--------------------------------------------- 
G|--0--------0-----------0------------------------------------ 
D|------------------------------------------------------------ 
A|-------3--------------------2------------------------------- 
E|------------------------------------------------------------ 
 


 
E|--5----------5--------0--------------------------------------- 
B|----------5--------------------------------------------------- 
G|------5----------5-------------------------------------------- 
D|-------------------------------------------------------------- 
A|--0----------------------------------------------------------- 
E|-------------------------------------------------------------- 
 


 
E|--3-----------3-----------3------------------------------------- 
B|----------1----------------------------------------------------- 
G|------0-------------0------------------------------------------- 
D|---------------------------------------------------------------- 
A|--3-----------------------2------------------------------------- 
E|---------------------------------------------------------------- 
 


 
E|--5----------5--------0--------------------------------------- 
B|----------5--------------------------------------------------- 
G|------5----------5-------------------------------------------- 
D|-------------------------------------------------------------- 
A|--0----------------------------------------------------------- 
E|-------------------------------------------------------------- 
 


 
E|----5--------5-----------5--------------------------------------- 
B|----------------------------------------------------------------- 
G|---------5-----------5------------------------------------------- 
D|----3-------------3---------------------------------------------- 
A|----------------------------------------------------------------- 
E|----------------------------------------------------------------- 
 


 
E|-5h--3-----------3--------------------------------------------- 
B|--------3-----3------------------------------------------------ 
G|-----------4--------------------------------------------------- 
D|--------------------------------------------------------------- 
A|--------------------------------------------------------------- 
E|--3------------------------------------------------------------ 
 


 
E|----------------0-------------------------------------------------- 
B|------------1--------1--------------------------------------------- 
G|-------0------------------0---------------------------------------- 
D|------------------------------------------------------------------- 
A|---3--------------------------------------------------------------- 
E|------------------------------------------------------------------- 
 


 
E|---------------3----------------------------------------------------- 
B|-----------0-------0------------------------------------------------- 
G|------0-----------------0-------------------------------------------- 
D|--------------------------------------------------------------------- 
A|--------------------------------------------------------------------- 
E|---3----------------------------------------------------------------- 
 




 
E|----3-----------3--------3---------------------------------------------- 
B|------------1----------------------------------------------------------- 
G|--------0------------0-------------------------------------------------- 
D|------------------------------------------------------------------------ 
A|----3------------------------------------------------------------------- 
E|------------------------------------------------------------------------ 
 


 
E|----5--------5----7----------------------------------------------------- 
B|----------------------------0------------------------------------------- 
G|--------5---------------7----------------------------------------------- 
D|----3-------------5----------------------------------------------------- 
A|------------------------------------------------------------------------ 
E|------------------------------------------------------------------------ 
 


 
E|----8-----------8--------0---------------------------------------------- 
B|------------10-------10------------------------------------------------- 
G|---------9-------------------------------------------------------------- 
D|------------------------------------------------------------------------ 
A|----0------------------------------------------------------------------- 
E|------------------------------------------------------------------------ 
 


 
E|---8--------10------------8---------------------------------------------- 
B|--------10------------10------------------------------------------------- 
G|------------------------------------------------------------------------- 
D|------------------------------------------------------------------------- 
A|---8--------------8------------------------------------------------------ 
E|------------------------------------------------------------------------- 
 




 
E|---10-----10---------10---------------------------------------------------- 
B|--------0---------0-------------------------------------------------------- 
G|----0----------0----------------------------------------------------------- 
D|--------------------------------------------------------------------------- 
A|--------------------------------------------------------------------------- 
E|--------------------------------------------------------------------------- 
 


 
E|---12--------0-------------------------------------------------------------- 
B|----------0------------3------3-----------1--------------------------------- 
G|-------0-----------1------------------2-------2----------------------------- 
D|-----------------------------------2--------------2---------0---------------- 
A|------------------------------0--------------------------------------------- 
E|----0----------------------------------------------------------------------- 
 

 (Refrão) 
 
E|---0-------3--------5------------5--------------------------5-----3--------- 
B|-----------------------------3----------3----------------------------------- 
G|-------------------------5-----------5-------------------------------------- 
D|--------------------3-------------------------------3----------------------- 
A|---------------------------------------------------------------------------- 
E|---------------------------------------------------------------------------- 
 


 
E|----0-----------0--------------------------0--------3------------------------ 
B|-------------1-----------1--------------------------------------------------- 
G|---------4------------4-------------2---------------------------------------- 
D|----------------------------------------------------------------------------- 
A|----0------------------------------------------------------------------------ 
E|----------------------------------------------------------------------------- 
 




 
E|----5-------------5--------------------------------------------------------- 
B|--------------3-----------3------------------------------------------------- 
G|----------5------------5---------------------------------------------------- 
D|----3----------------------------------------------------------------------- 
A|---------------------------------------------------------------------------- 
E|---------------------------------------------------------------------------- 
 


 
E|------------5----3----------0--------------------1h0------------------------- 
B|--------------------------------------1-------------------------------------- 
G|-----------------------------------0----------------------------------------- 
D|----3------------------------------------------------------------------------ 
A|----------------------------3---------------3-------------------------------- 
E|----------------------------------------------------------------------------- 
 


 
E|-----------------------------------------------0------------------------------- 
B|----3-----------------------1-------1--------------1--------------------------- 
G|------------0------------------------------0-----------0----------------------- 
D|---------0-------------0----------------2-------------------------------------- 
A|------------------------------------3------------------------------------------ 
E|----3-------------3------------------------------------------------------------ 
 

 
                                    C 
E|-------------3-------------------0------------------------------------------ 
B|----------0------0---------------1------------------------------------------ 
G|-------0------------0------------0------------------------------------------ 
D|---------------------------------2------------------------------------------ 
A|---------------------------------3------------------------------------------ 
E|---3-----------------------------x------------------------------------------ 
	  

there isn't a video lesson for this song

request
Full key step upFull key step up
Half key step upHalf key step up
Half key step downHalf key step down
Full key step downFull key step down
Search
auto scroll beats size up size down change color hide chords drawings
tab show chords e-chords YouTube Clip e-chords hide all tabs e-chords go to top tab