Oficina G3

o tempo (ver. 2)

Oficina G3

tabs Expert expert

by  EZEKIEL

save to print version add songbook text version e-mail correct tuner
chordsukulelecavacokeyboardtabbassdrumsharmonicaflute Guitar Pro
close

there isn't a video lesson for this song

chords

o tempo (ver. 2)

	  		INTRO: Gm  C9  F  Bb9 
 
 Gm                 C9 
O vento toca o meu rosto 
      F                         Bb9 
me lembrando que o tempo vai com ele 
  Gm                         C9 
levando em suas asas os meus dias, 
     F          Bb9 
desta vida passageira  
 Gm 
minhas certezas, meus conceitos,  
          C9 
minhas virtudes, meus defeitos 
F          Bb9 
nada pode detê-lo... 
 
 
   Gm       Am 
...o tempo se vai  
Bb9               
mas algo sempre guardarei... 
  Dm     C9         Bb9           C9 
..o Teu amor, que um dia eu encontrei 
 
 
F        Gm        Am         Bb9 
os meus sonhos, o vento nao pode levar 
Dm     C9         Bb9           C9 
a esperança, encontrei no Teu olhar 
F       Gm        Am            Bb9 
os meus sonhos, a areia não vai enterrar 
Dm       C9          Am             Bb9 
porque a vida recebi ao Te encontrar... 
 
 
Gm                        C9 
...nos Teus braços não importa o tempo 
     F              Bb9 
só existe o momento de sonhar 
     Gm             C9 
e o medo que está sempre à porta 
         F 
quando estou com Você 
        Bb9 
Ele não pode entrar... 
 
-->REPETE:"o tempo se vai..." E Refrão.  
 
Solo{BASE: Gm C9 F Bb9 2X} 
e------------5-6-8---8--6p5--------------------- 
B-----5-6-8--------6--------8-----5-6-8-8/10-10- 
G-5-7-------------------------5-7--------------- 
D----------------------------------------------- 
A----------------------------------------------- 
E----------------------------------------------- 
 
e-----------------8--5-6-8-6p5------------------ 
B-8p6-8-8/10-6-----------------8-6-5-6-8-6p5---- 
G---------------5---------------------------7-5- 
D----------------------------------------------- 
A----------------------------------------------- 
E----------------------------------------------- 
 
e--6-8-10-8-5---------- 
B-------------6-------- 
G---------------7~~---- 
D---------------------- 
A---------------------- 
E---------------------- 
 
->BASE DO CORAL:Dm C9 F Bb9 F C9{2X Csus4 C9
 
F        Gm        Am         Bb9 
os meus sonhos, o vento nao pode levar 
Dm     C9         Bb9           C9 
a esperança, encontrei no Teu olhar 
F       Gm        Am            Bb9 
os meus sonhos, a areia não vai enterrar 
Dm       C9          Am             Bb9 
porque a vida recebi ao Te encontrar...{2X} 
 
--->FINAL: F Gm C9  F Gm C9 Bb9  F 
================================================ 
=================={EzEqUiEl}==================== 
==={BANDA FILHOS DA PROMESSA {043} 3328 9609}=== 
================================================
		  

Full key step upFull key step up
Half key step upHalf key step up
Half key step downHalf key step down
Full key step downFull key step down
hide glossary

See also:

tabs Fernanda Brum - Espírito Santo tabs Atmosfera de Adoração - Agnus Dei(Solo) tabs Metal Nobre - Jerusalém tabs Oficina G3 - Brasil tabs Diante do Trono - Me Ama tabs Oficina G3 - Minha Luta
e-chords

Other versions:

tabs Oficina G3 - O Tempo tabs Oficina G3 - o tempo (ver. 2) tabs Oficina G3 - O tempo (ver. 2) tabs Oficina G3 - O tempo (ver. 3) tabs Oficina G3 - O Tempo (ver.3) tabs Rodrigo Sousa - O Tempo Corre
auto scroll beats size up size down change color hide chords drawings
tab show chords e-chords YouTube Clip e-chords hide all tabs e-chords go to top tab

share