Oficina G3

Depois Da Guerra

Oficina G3

tabs Beginner beginner

by  IVA...

save to print version add songbook text version e-mail correct tuner
chordsukulelecavacokeyboardtabbassdrumsharmonicaflute Guitar Pro
close

there isn't a video lesson for this song

chords

Depois Da Guerra

Year: 2008 -

	  		        \1/         \1/                        \1/        
       Q    Q     Q     H           E   Q    Q     Q     E    
E||------------------------------|--------------------------| 
B||------------------------------|--------------------------| 
G||---------7----15----13--------|-----12----8----10----12--| 
D||--/10-------------------------|--------------------------| 
A||------------------------------|--------------------------| 
E||------------------------------|--------------------------| 


                      \1/                                                      
   Q    Q    Q     E  Q       Q    Q     Q    E   Q       Q    Q    H          
---------------------------|---------------------------|---------------------| 
---------------------------|---------------------------|---------------------| 
--10---------8----10--7----|------------/8-------10----|-------7----8--------| 
---------------------------|-------8-------------------|---------------------| 
---------------------------|---------------------------|---------------------| 
---------------------------|---------------------------|---------------------| 


            3        3                                  
   H        E.  E.   E      H        S S S  S S S S S   
------------------------|-----------------------------| 
------------8---8---10--|--10---------------------9-6-| 
--12--------------------|------------8-5---10-7-------| 
------------------------|----------------6------8-----| 
------------------------|-----------------------------| 
------------------------|-----------------------------| 


  S S S S S S E  W                    Q    S T T T T T E    Q     H           
----6---9-8-6----------------------|-------------6-8-9----/16----16b--------| 
------9-------9--9b----------------|-------6-7-9----------------------------| 
--7--------------------------------|----------------------------------------| 
-----------------------------------|----------------------------------------| 
-----------------------------------|----------------------------------------| 
-----------------------------------|----------------------------------------| 


  H         S  S  S   S  S  S  S   S   
-----------18-18-18p-16-16-16-16p-14-| 
-------------------------------------| 
-------------------------------------| 
-------------------------------------| 
-------------------------------------| 
-------------------------------------| 


   3  3                                           
   S  S  S   S  S  S  S  S E   Q      H           
--14-14-14p-13-13-13-13p-9-9--10b----10b--------| 
------------------------------------------------| 
------------------------------------------------| 
------------------------------------------------| 
------------------------------------------------| 
------------------------------------------------| 


           PM PM PM PM PM PM PM PM   
  H        S  S  S  S  S  S  S  S    
-----------9--6--------------------| 
-----------------9--6--------9--6--| 
-----------------------8--6--------| 
-----------------------------------| 
-----------------------------------| 
-----------------------------------| 


  PM PM PM PM PM PM PM PM PM PM PM PM PM PM PM PM   
  S  S  S  S  S  S  S  S  S  S  S  S  S  S  S  S    
--------------------------------------------------| 
--------------------------------------------------| 
--8--6--------8--6--8--6--------8--6--8--6--------| 
--------8--6--------------8--6--------------8--6--| 
--------------------------------------------------| 
--------------------------------------------------| 


   PMPM  PMPM  PMPM  PMPM  PMPM  PMPM PM PM PM PM   
   S S   S S   S S   S S   S S   S S  S  S  S  S    
--------------------------------------------------| 
--------------------------------------------------| 
--------------------------------------------------| 
--11-8--11-8--------11-8--11-8--------8--6--8--6--| 
--------------11-8--------------11-8--------------| 
--------------------------------------------------| 


  PM PM PM PM PM PM PM PM PM  PMPM PM PM  PMPM  PM  
  S  S  S  S  S  S  S  S  S   S S  S  S   S S   S   
--------------------------------------------------| 
--------------------------------------------------| 
--------------------------------------------------| 
--------8--6--8--6--------8-----------------8-----| 
--8--6--------------8--6-----11-9--8--9--11----11-| 
--------------------------------------------------| 


  PM PM PM  PM PM PM PMPM  PM PM PM PM PMPM  PM PM  
  S  S  S   S  S  S  S S   S  S  S  S  S S   S  S   
--------------------------------------------------| 
--------------------------------------------------| 
--------------------------------------------------| 
--------------10----------------10----------------| 
--9--8--9--11----13-11-9--11-13----13-11-9--11-13-| 
--------------------------------------------------| 


   PM PM PM PM PM PM PM PM PM PM PM PMPM  PM PMPM   
   S  S  S  S  S  S  S  S  S  S  S  S S   S  S S    
--------------------------------------------------| 
--------------------------------------------------| 
--------------------------------------8-----------| 
--11----------------11-------------------11-10-8--| 
-----15-13-11-13-15----15-13-11-13-15-------------| 
--------------------------------------------------| 


   PM PMPM  PM PMPM  PM PM                       
   S  S S   S  S S   S  S S  S  S S  S  S S  S   
------------------------------------------9-11-| 
----------------------------------9-11-13------| 
--------8-----------------8-10-11--------------| 
--10-11----11-10-8--10-11----------------------| 
-----------------------------------------------| 
-----------------------------------------------| 


   S Q    T T T  T  T  T  T T  T T  T  T  T T  T  W                         
--11------------------------9-13-9----------9-13-13b----------------|----|| 
-------------------------11--------11----11-------------------------|----|| 
----------------------10--------------10----------------------------|----|| 
-------------------11-----------------------------------------------|----|| 
--------------8-13--------------------------------------------------|----|| 
----------6-9-------------------------------------------------------|----|| 
		  

Full key step upFull key step up
Half key step upHalf key step up
Half key step downHalf key step down
Full key step downFull key step down
hide glossary

See also:

tabs Heloisa Rosa - Há Um Lugar - Completo tabs Diante do Trono - A Ele a Glória tabs Heloisa Rosa - Jesus é o Caminho tabs Toque no Altar - Deus De Promessa tabs Lázaro - Eu Te Amo Tanto tabs Oficina G3 - Até quando?
e-chords

Other versions:

tabs Oficina G3 - Depois Da Guerra
auto scroll beats size up size down change color hide chords drawings
tab show chords e-chords YouTube Clip e-chords hide all tabs e-chords go to top tab

share