Oasis

home > Oasis

Sunday Morning Call Tab

Oasis

Difficulty: BeginnerBeginner

tuner correct add songbook print version text version save to e-mail
chordsukulelecavacokeyboardtabbassdrumsharmonicsflute Guitar Pro
chords

Sunday Morning Call

  		Versão 1:
=========

Por Heduardo Cordeiro.

Bb  X   D  D5 G  Em  C Fmaj7 Cadd9 
6---0---2--3--3--0---0--0------3
6---6---3--3--3--0---1--1------3
7---5---2--2--0--0---0--2------0
8---0---0--0--0--2---2--3------2
8-------------2--2---3--3------3
6-------------3--0------x------x

O acorde se chama "X" porque eu não sei o nome dele.

Intro: Bb

VERSO 1

Bb                    X
Here's another sunday morning call
             Bb                    X
You hear yer head a bangin' on the door
Bb                          X
Slip your shoes on and then out you crawl
       Bb                         X
Into a day that couldn't give you more
         D
But what for?


Refrão

            G           D5
And in your head do you feel
            Em              Cadd9
What you're not supposed to feel
        G             D5
And you take what you want
        Cadd9                 Em    D
But you don't get it for free
    G         D5
You need more time
          Em                       Cadd9         G
'Coz your thoughts and words won't last forever more
            D5            Em            Cadd9
But I'm not sure if it'll ever work out right

          D5 Cadd9 G Cadd9
But it's ok
          D5  Cadd9 G          
It's alright


VERSO 2

Bb                       X
When your lonely and you start to hear
           Bb                     X
The little voices in your head at night
Bb                  X
You will only snip away the tears
           Bb                      X
So you can dance until the morning light
        D
At what price?


Refrão

            G           D5
And in your head do you feel
            Em              Cadd9
What you're not supposed to feel
        G             D5
And you take what you want
        Cadd9                  Em    D
But you don't get hope for free
    G         D5
You need more time
          Em                       Cadd9         G
'Coz your thoughts and words won't last forever more
            D5   
But I'm not sure 
         Fmaj7       C             G       Cadd9
If it'll ever ever ever work out right
         Fmaj7     C             G       Cadd9
Will it ever ever ever work out right 
         Fmaj7       C             G       
Coz it never never never work out right 


Versão 2


I have finally tabbed the intro and the solo....

intro :

listen to the song for the rhythm
       Bb
e------6-6-6-6-6-6-6-6-------6-6-6-6-6-6-6-6------
B------6-6-6-6-6-6-6-6-------6-6-6-6-6-6-6-6------
G------7-7-7-7-7-7-6-6h7-----7-7-7-7-7-7-6-6h7----
D------8-8-8-8-8-8-8-8-------8-8-8-8-8-8-8-8------
A------8-8-8-8-8-8-8-8-------8-8-8-8-8-8-8-8------
E------6-6-6-6-6-6-6-6-------6-6-6-6-6-6-6-6------

Bb                    Dm  
Here's another Sunday morning call
              Bb                 Dm
You hear your head banging on the door
Bb                               Dm
You slip those shoes on and then out you crawl
       Bb                         Dm
Into a day that couldn't give you more
         D
But what for?


Chorus :
            G            D
And In your head, do you feel
            Em              Am7
What you're not supposed to feel
        G              D
And you take, what you want
        F                Em     D
But you don't get it for free
    G          D
You need, more time
         Em                       Am           G
Coz your thoughts and words won't last forever more
             D
But I'm not sure
       C              Am
If it ever works out right
       D2      D       D2     D....                     
But it's ok ,  it's alright



Bb                     Dm
When you're lonely and you start to hear
                Bb                   Dm
The little voices in your head at night
Bb                  Dm
You will only sniff away the tears
              Bb                 Dm 
So you can dance until the morning light
            D
But at what price?


Chorus x 1


Solo :

e--------------------|---------------------------------|------------------|---------------------|
B--------------------|---------------------------------|--3---6-----------|----3---6------------|
G--5b7--5br7--3------|--------------3-------3~---------|--------5b7r5~----|-5---------5b7r5~----|
D-----------------5--|--------3--5------5--------5~----|------------------|---------------------|
A--------------------|--3--5---------------------------|------------------|---------------------|
E--------------------|---------------------------------|------------------|---------------------|

e--------------------|---------------------------------|------------------|---------------------|
B--------------------|---------------------------------|--3---6-----------|----3---6------------|
G--5b7--5br7--3------|--------------3-----3~-----------|--------5b7r5~----|-5---------5b7r5~----|
D-----------------5--|--------3--5-----5-----5--3--5~--|------------------|---------------------|
A--------------------|--3--5---------------------------|------------------|---------------------|
E--------------------|---------------------------------|------------------|---------------------|
                          D        C        D 
e--------------------|.........................
B--------------------|.........................
G--5--4--5--6--7~----|...........improvise!!!..
D--------------------|.........................
A--------------------|.........................
E--------------------|.........................


             G            D
And In your head, do you feel
            Em              Am7
What you're not supposed to feel
        G              D
And you take, what you want
        F                  Em     D
But you can't get hope for free
    G          D
You need, more time
         Em                       Am           G
Coz your thoughts and words won't last forever more
             D
But I'm not sure

       F        C              G            D    
If it ever ever ever works out right
       F        C              G            D    
If it ever ever ever works out right
       F           C                     G  
Coz it never never never works out right
	  

Full key step upFull key step up
Half key step upHalf key step up
Half key step downHalf key step down
Full key step downFull key step down
Search Paypal
auto scroll beats size up size down change color hide chords drawings
tab show chords e-chords YouTube Clip e-chords hide all tabs e-chords go to top tab