Nudeswirl

home > Nudeswirl

Damned Tab

Nudeswirl

Difficulty: nolevelnolevel

by LINEKERS

tuner correct add songbook print version text version save to e-mail
chordsukulelecavacokeyboardtabbassdrumsharmonicsflute Guitar Pro
chords

Damned

  		This song is mostly based off the tritone chord (makes sense with the title). But here  
ya go. 

Intro 
e|---------------------------------| 
B|---------------------------------| 
G|-5-5-5-5-5-5-5-5-5-5-5-5-5-5-5-5-| 
D|-4-4-4-4-4-4-4-4-4-4-4-4-4-4-4-4-| 
A|-3-3-3-3-3-3-3-3-3-3-3-3-3-3-3-3-| 
E|---------------------------------| 

e|-----| 
B|-----| 
G|-11~-| 
D|-10~-| 
A|-9~--| 
E|-----| 

Verse 
e|---------------------------------| 
B|---------------------------------| 
G|-2-2-2-2-2-2-2-2-2-2-2-2-2-2-2-2-| 
D|-1-1-1-1-2-2-2-2-1-1-1-1-2-2-2-2-| 
A|-0-0-0-0-0-0-0-0-0-0-0-0-0-0-0-0-| 
E|---------------------------------| 

Gt.1 plays this, Gt.2 strums it as a chord. 
e|---------------------| 
B|---------------------| 
G|---5----5----5----5--| 
D|--4-4--4-4--4-4--4-4-| 
A|-3----3----3----3----| 
E|---------------------| 

Gt.1 does this for the last 2 lines of the verse. Gt.2 doesn't change. 

Gt.1 x2 
e|-11-11-11-11-12-12-12-12-| 
B|-10-10-10-10-10-10-10-10-| 
G|-------------------------| x3 
D|-------------------------| 
A|-------------------------| 
E|-------------------------| 

e|-11/14-14/17-17/20-20-| 
B|-10/13-13/16-16/19-19-| 
G|----------------------| 
D|----------------------| x1 
A|----------------------| 
E|----------------------| 

Chorus x2 
Gt.1 
e|-----------------------| 
B|-----------------------| 
G|-9b-9b-12b-12b-14b-14b-| 
D|-----------------------| 
A|-----------------------| 
E|-----------------------| 

e|--------------------------------------| 
B|--------------------------------------| 
G|-17b-17t-14p12-17t-14p12-17t-14p12-17-| 
D|--------------------------------------| 
A|--------------------------------------| 
E|--------------------------------------| 

Gt.2 
e|-------------------------| 
B|-9-9-9-8-8-8-7-7---------| 
G|-9-9-9-8-8-8-7-7-----7---| 
D|-9-9-9-8-8-8-7-7-7-7-7-7-| 
A|-7-7-7-6-6-6-5-5-7-7-5-7-| 
E|-----------------5-5---5-| 

Back into verse 
e|---------------------------------| 
B|---------------------------------| 
G|---------------------------------| 
D|-1-1-1-1-2-2-2-2-1-1-1-1-2-2-2-2-| 
A|---------------------------------| 
E|---------------------------------| 

Solo (pretty easy). 
e|-/12-12-12-12-12-12-12-12-| 
B|-/13-13-13-13-13-13-13-13-| 
G|--------------------------| 
D|--------------------------| 
A|--------------------------| 
E|--------------------------| 

e|-/15-15-15-15\14-14-14-14-| 
B|-/16-16-16-16\15-15-15-15-| 
G|--------------------------| 
D|--------------------------| 
A|--------------------------| 
E|--------------------------| 

e|-/9--/9--/9--/9--/9--/9--/9--/9--| 
B|-/10-/10-/10-/10-/10-/10-/10-/10-| 
G|---------------------------------| 
D|---------------------------------| 
A|---------------------------------| 
E|---------------------------------| 
Do the above x3 then do this once. 

e|-/12-12-12-12-12-12-12-12-| 
B|-/13-13-13-13-13-13-13-13-| 
G|--------------------------| 
D|--------------------------| 
A|--------------------------| 
E|--------------------------| 

e|-/15-15-15-15\14-14-14-14-| 
B|-/16-16-16-16\15-15-15-15-| 
G|--------------------------| 
D|--------------------------| 
A|--------------------------| 
E|--------------------------| 
Then the rest of the solo is the lead to the Chorus. 

That's the whole song. It took me a while to figure out but it's a fuckin great kick-ass  
song. Apparently in some video, Shane said it was supposed to have a video... too bad  
it didn't. Have fun with this one, sarg. 
	  

Search Paypal
auto scroll beats size up size down change color hide chords drawings
tab show chords e-chords YouTube Clip e-chords hide all tabs e-chords go to top tab