Nothing But Thieves

Neon Brother

Nothing But Thieves

tabs

by  TERR_SCHMITZ

save to print version add songbook text version e-mail correct tuner
chordsukulelecavacokeyboardtabbassdrumsharmonicaflute Guitar Pro
close

there isn't a video lesson for this song

chords

Neon Brother

	  		

VERSE/BRIDGE (Guitar 1) - Throughout Verse One 

e|---------------------------------------------------------------------------| 
B|---------------------------------------------------------------------------| 
G|---------------------------------------------------------------------------| 
D|--1--/3-4-4-4--------------------------------------------------------------| 
A|---------------------------------------------------------------------------| 
E|---------------------------------------------------------------------------| 

VERSE/BRIDGE (Guitar 2) - Throughout Verse One & Two 

e|---------------------------------------------------------------------------| 
B|---------------------------------------------------------------------------| 
G|---------------4-4-4-4-4-4-4-4-4-4-4-4-------------------------------------| 
D|-3-3-3-3-3-3---4-4-4-4-4-4-4-4-4-4-4-4-------------------------------------| 
A|-3-3-3-3-3-3---2-2-2-2-2-2-2-2-2-2-2-2-------------------------------------| 
E|-1-1-1-1-1-1---------------------------------------------------------------| 

Chorus/BREAKDOWN (Guitar 1) 

e|---------------------------------------------------------------------------| 
B|---------------------------------------------------------------------------| 
G|------------------8-8-8-8-8-8-8-8--6-6-6-6-6-6-6-6--4-4-4-4-4-4-4-4--------| 
D|-6-6-6-6-6-6-6-6--8-8-8-8-8-8-8-8--6-6-6-6-6-6-6-6--4-2-2-2-2-2-2-2--------| 
A|-6-6-6-6-6-6-6-6--6-6-6-6-6-6-6-6--4-4-4-4-4-4-4-4--2-2-2-2-2-2-2-2--------| 
E|-4-4-4-4-4-4-4-4-----------------------------------------------------------| 

SOLO (Guitar 2) - End of Second Chorus and Breakdown 

e|-----4-6-----4-6-4---------------------------------------------------------| 
B|-4-7-----4-7---------------------------------------------------------------| 
G|---------------------------------------------------------------------------| 
D|---------------------------------------------------------------------------| 
A|---------------------------------------------------------------------------| 
E|---------------------------------------------------------------------------| 



************************************ 

| /   slide up 
| \   slide down 
| h   hammer-on 
| p   pull-off 
| ~   vibrato 
| +   harmonic 
| x   Mute note 
| b   Bend 
| pb  Pre-bend 
| br  Bend release 
| pbr Pre-bend release 
| brb Bend release bend 

************************************ 
		  

auto scroll beats size up size down change color hide chords drawings
tab show chords e-chords YouTube Clip e-chords hide all tabs e-chords go to top tab

share