Noir Désir

Le Grand Incendie

Noir Désir

tabs

by  ANG-LETRA

save to print version add songbook text version e-mail correct tuner
chordsukulelecavacokeyboardtabbassdrumsharmonicaflute Guitar Pro
close

there isn't a video lesson for this song

chords

Le Grand Incendie

	  		

Riff Basse :  
G |----------------------------------------------------| 
D |----------------------------------------------------| 
A |--------------------------5-----------3-------------| 
E |--5--------0--5--------0----------------------------| 


Guitare :  
                               
B |-----------3----|--1-------------| 
G |----------------|----------------| 
D |----------------|----------------| 
A |----------------|----------------| 
E |----------------|----------------| 

Solo 
|-----------3----|--1-----1-------|----------------|----------------|----------------| 
|----------------|-----2-----2----|--------1-------|--3--3--1-------|--3--3----------| 
|----------------|----------------|--2--2-----2----|-----------2----|--------5--2----| 
|----------------|----------------|----------------|----------------|----------------| 
|----------------|----------------|----------------|----------------|----------------| 
|----------------|----------------|----------------|----------------|----------------| 

 "C'est l'incendie" .... 
E |----------------------------------------------------|| 
B |----------------------------------------------------|| 
G |----------------------------------------------------|| 
D |--7--7--7--7----------------------------------------|| 
A |--7--7--7--7----------------------------------------|| 
E |--5--5--5--5----------------------------------------|| 



Harmonica Solo  :                                  
E |-------|----------------------------------------------------| 
B |--13L--|--13L---------------------------------13-13b--------| 
G |-------|----------------------------------------------------| 
D |-------|----------------------------------------------------| 
A |-------|----------------------------------------------------| 
E |-------|----------------------------------------------------| 

                                           
----------------|-------|----------------| 
--10------------|-------|--15-15L--------| 
----------------|-------|----------------| 
----------------|-------|----------------| 
----------------|-------|----------------| 
----------------|-------|----------------| 

                                                                               
----------------------------------------------------|----------------|-------| 
--15L---------------------------------15b13b--------|--10------------|-------| 
----------------------------------------------------|----------------|-------| 
----------------------------------------------------|----------------|-------| 
----------------------------------------------------|----------------|-------| 
----------------------------------------------------|----------------|-------| 

                                                                               
-------|----------------------------------------------------|----------------| 
--13L--|--13L---------------------------------13-13b--------|--10------------| 
-------|----------------------------------------------------|----------------| 
-------|----------------------------------------------------|----------------| 
-------|----------------------------------------------------|----------------| 
-------|----------------------------------------------------|----------------| 

                                                                               
-------|----------------|----------------------------------------------------| 
-------|--15-15L--------|--15L---------------------------------15b13b--------| 
-------|----------------|----------------------------------------------------| 
-------|----------------|----------------------------------------------------| 
-------|----------------|----------------------------------------------------| 
-------|----------------|----------------------------------------------------| 

  W       W       W 
-------|-------|----------|| 
--10L--|--10L--|--10------|| 
-------|-------|----------|| 
-------|-------|----------|| 
-------|-------|----------|| 
-------|-------|----------|| 

Solo Clavier :  
E |----------------|----------------|----------------|----------------|-------|| 
B |----------------|----------------|----------------|----------------|-------|| 
G |----------------|----------------|----------------|----------------|-------|| 
D |--------10-12---|--12-10---------|-----------12L--|--12-10---------|-------|| 
A |--12------------|--------12-12---|--10-12---------|--------12L-----|--12---|| 
E |----------------|----------------|----------------|----------------|-------|| 
		  

auto scroll beats size up size down change color hide chords drawings
tab show chords e-chords YouTube Clip e-chords hide all tabs e-chords go to top tab

share