Nofx

home > Nofx

Wore Out The Soles Of My Party Boots Tab

Nofx

Difficulty: nolevelnolevel

by paulantunes

tuner correct add songbook print version text version save to e-mail
chordsukulelecavacokeyboardtabbassdrumsharmonicsflute Guitar Pro
chords

Wore Out The Soles Of My Party Boots

  		 
|---------------------------------| 
|---------------------------------| 
|---------------------------------| 
|---------------------------------| 
|---7--6--4--6--7-7-6-6-4-4-6-6---| 
|---------------------------------| 
 

 
|--------------------------------------------------| 
|--------------------------------------------------| 
|--9-9---8-8---------9-9---2-2---4-4---6-6---9-9---| 
|--7-7---6-6---7-7---7-7---0-0---2-2---4-4---7-7---| 
|--------------5-5---------------------------------| 
 

 
|----------------------------------------------------------| 
|----------------------------------------------------------| 
|------------------------------------------------9-9-9-9---| 
|--7-7-7--9-9-9--11-11-11--9-9-9--7-7-7-7-7-7----9-9-9-9---| 
|--7-7-7--9-9-9--9--9--9---9-9-9--7-7-7-7-7-7----7-7-7-7---| 
|--5-5-5--7-7-7--9--9--9---7-7-7--5-5-5-5-5-5--------------| 
 

 
|-----------------------------------------------------------------------| 
|-----------------------------------------------------------------------| 
|--------------------------9-9-9----------------------------------------| 
|--11-11-11--9-9-9--7-7-7--9-9-9----------------------------------------| 
|--11-11-11--9-9-9--7-7-7--7-7-7------7--------8--------9--------10-----| 
|--9--9--9---7-7-7--5-5-5---------5-5---5--6-6---6--7-7---7--8-8----8---| 
 

 
|----------------------------------------------------------| 
|----------------------------------------------------------| 
|------------------------------------------------9-9-9-9---| 
|--7-7-7--9-9-9--11-11-11--9-9-9--7-7-7-7-7-7----9-9-9-9---| 
|--7-7-7--9-9-9--9--9--9---9-9-9--7-7-7-7-7-7----7-7-7-7---| 
|--5-5-5--7-7-7--9--9--9---7-7-7--5-5-5-5-5-5--------------| 
 

 
|----------------------------------------------------| 
|----------------------------------------------------| 
|--6--6--6--6--6--6--6--6--6-------------------------| 
|--6--6--6--6--6--6--6--6--6-------------------------| 
|--4--4--4--4--4--4--4--4--4-------------------------| 
|------------------------------5-5--4-4--2-2--5--7---| 
 

 
|-----------------------------------------------------------------------| 
|-----------------------------------------------------------------------| 
|--------------------------9-9-9----------------------------------------| 
|--11-11-11--9-9-9--7-7-7--9-9-9----------------------------------------| 
|--11-11-11--9-9-9--7-7-7--7-7-7------7--------8--------9--------10-----| 
|--9--9--9---7-7-7--5-5-5---------5-5---5--6-6---6--7-7---7--8-8----8---| 
 

 
|----------------------------------------------------------| 
|----------------------------------------------------------| 
|------------------------------------------------9-9-9-9---| 
|--7-7-7--9-9-9--11-11-11--9-9-9--7-7-7-7-7-7----9-9-9-9---| 
|--7-7-7--9-9-9--9--9--9---9-9-9--7-7-7-7-7-7----7-7-7-7---| 
|--5-5-5--7-7-7--9--9--9---7-7-7--5-5-5-5-5-5--------------| 
 

 
|-----------------------------------------------------------------------| 
|-----------------------------------------------------------------------| 
|--------------------------9-9-9----------------------------------------| 
|--11-11-11--9-9-9--7-7-7--9-9-9----------------------------------------| 
|--11-11-11--9-9-9--7-7-7--7-7-7------7--------8--------9--------10-----| 
|--9--9--9---7-7-7--5-5-5---------5-5---5--6-6---6--7-7---7--8-8----8---| 
 

 
|----------------------------------------------------------| 
|----------------------------------------------------------| 
|------------------------------------------------9-9-9-9---| 
|--7-7-7--9-9-9--11-11-11--9-9-9--7-7-7-7-7-7----9-9-9-9---| 
|--7-7-7--9-9-9--9--9--9---9-9-9--7-7-7-7-7-7----7-7-7-7---| 
|--5-5-5--7-7-7--9--9--9---7-7-7--5-5-5-5-5-5--------------| 
 

 
|----------------------------------------------------| 
|----------------------------------------------------| 
|--6--6--6--6--6--6--6--6--6-------------------------| 
|--6--6--6--6--6--6--6--6--6-------------------------| 
|--4--4--4--4--4--4--4--4--4-------------------------| 
|------------------------------5-5--4-4--2-2--5--7---| 
 

 
|----------------------------------------------------| 
|----------------------------------------------------| 
|--6--6--6--6--6--6--6--6--6-------------------------| 
|--6--6--6--6--6--6--6--6--6-------------------------| 
|--4--4--4--4--4--4--4--4--4-------------------------| 
|------------------------------5-5--4-4--2-2--5--7---| 
 

 
|-----------------------------------------------------------------| 
|-----------------------------------------------------------------| 
|-66666666-6-6----99999999-9-9---------------------55555555-5-5---| 
|-66666666-6-6----99999999-9-9-----99999999-9-9----55555555-5-5---| 
|-44444444-4-4----77777777-7-7-----99999999-9-9----33333333-3-3---| 
|----------------------------------77777777-7-7-------------------| 
 

 
|---------------------------------|---------------------| 
|-----------------------------12b-|---------------------| 
|------9--11--11r--11-------------|------------------9--| 
|--11------------------9--11------|--------------11-----| 
|---------------------------------|---------------------| 
|---------------------------------|---------------------| 
 

 
|-------------------------------|-----------------------------| 
|---------------------------12--|--------12-------------------| 
|--11--11r---------9--11b-------|--11b-------11b--11r---9--11-| 
|-----------9-11----------------|-----------------------------| 
|-------------------------------|-----------------------------| 
|-------------------------------|-----------------------------| 
 

 
|--------------------------|--------------------9-------| 
|--------------------------|----------------12-----12---| 
|-----------9--9------9--9-|-------9--11b---------------| 
|---10------------11-------|---11-----------------------| 
|--------------------------|----------------------------| 
|--------------------------|----------------------------| 
 

 
|-----------9---12----9---14b--|---14h12-------------12--------| 
|--14---12---------------------|---------14--12----------------| 
|------------------------------|-------------------------------| 
|------------------------------|-------------------------------| 
|------------------------------|-------------------------------| 
|------------------------------|-------------------------------| 
 

 
|-----------------------------------------------------------------------| 
|-----------------------------------------------------------------------| 
|--------------------------9-9-9----------------------------------------| 
|--11-11-11--9-9-9--7-7-7--9-9-9----------------------------------------| 
|--11-11-11--9-9-9--7-7-7--7-7-7------7--------8--------9--------10-----| 
|--9--9--9---7-7-7--5-5-5---------5-5---5--6-6---6--7-7---7--8-8----8---| 
 

 
|----------------------------------------------------------| 
|----------------------------------------------------------| 
|------------------------------------------------9-9-9-9---| 
|--7-7-7--9-9-9--11-11-11--9-9-9--7-7-7-7-7-7----9-9-9-9---| 
|--7-7-7--9-9-9--9--9--9---9-9-9--7-7-7-7-7-7----7-7-7-7---| 
|--5-5-5--7-7-7--9--9--9---7-7-7--5-5-5-5-5-5--------------| 
 

 
|----------------------------------------------| 
|----------------------------------------------| 
|-----------------------------------9-9-9-9----| 
|--11-11-11---9-9-9-9----7-7-7-7----9-9-9-9----| 
|--11-11-11---9-9-9-9----7-7-7-7----7-7-7-7----| 
 
|--9--9--9 ---7-7-7-7----5-5-5-5---------------| 
................................................ 

|----------------------------------------------------------| 
|----------------------------------------------------------| 
|----------------------------------------------------------| 
|--7-7-7--9-9-9--11-11-11--9-9-9--7-7-7-7-7-7---2-2-2-2----| 
|--7-7-7--9-9-9--9--9--9---9-9-9--7-7-7-7-7-7---2-2-2-2----| 
|--5-5-5--7-7-7--9--9--9---7-7-7--5-5-5-5-5-5---0-0-0-0----| 
	  

Search Paypal
auto scroll beats size up size down change color hide chords drawings
tab show chords e-chords YouTube Clip e-chords hide all tabs e-chords go to top tab