Nofx

home > Nofx

The longest line Tab

Nofx

Difficulty: nolevelnolevel

tuner correct add songbook print version text version save to e-mail
chordsukulelecavacokeyboardtabbassdrummharmonicsflute Guitar Pro
chords

The longest line

  		verse 

pm_____________________________________________________________|
|---------------------------------------------------------------
|---------------------------------------------------------------
|-5-5-5-5-5-5-5-5-----------------------------------------------
|-5-5-5-5-5-5-5-5-5-5-5-5-5-5-5-5-7-7-7-7-7-7-7-7-7-7-7-7--7--5-
|-3-3-3-3-3-3-3-3-5-5-5-5-5-5-5-5-7-7-7-7-7-7-7-7-7-7-7-7--7--5-
|-----------------3-3-3-3-3-3-3-3-5-5-5-5-5-5-5-5-5-5-5-5--5--3-

pm________________________________________________________|
 -------------------------------------------------------------------|
 -------------------------------------------------------------------|
 -5-5-5-5-5-5-5-5------------------------------------------------5--|
 -5-5-5-5-5-5-5-5-5-5-5-5-5-5-5-5-3-3-3-3-3-3-3-3-3-3-3-3--7--5--5--|
 -3-3-3-3-3-3-3-3-5-5-5-5-5-5-5-5-3-3-3-3-3-3-3-3-3-3-3-3--7--5--3--|
 -----------------3-3-3-3-3-3-3-3-1-1-1-1-1-1-1-1-1-1-1-1--5--3-----|

post verse 

|---------------------|
|---------------------|
|---------------------|
|--3---5----7----8----|
|--3---5----7----8----|
|--1---3----5----6----|

chorus

|-----------------------------------------------------------------
|-----------------------------------------------------------------
|-5-5-5-5-5-5-5-5-------------------------------------------------
|-5-5-5-5-5-5-5-5-5-5-5-5-5-5-5-5-7-7-7-7-7-7-7-7-2-2-2-2-2-2-2-2-
|-3-3-3-3-3-3-3-3-5-5-5-5-5-5-5-5-7-7-7-7-7-7-7-7-2-2-2-2-2-2-2-2-
|-----------------3-3-3-3-3-3-3-3-5-5-5-5-5-5-5-5-0-0-0-0-0-0-0-0-

 -------------------------------------------------------------------------|
 -------------------------------------------------------------------------|
 -----------------5-5-5-5-5-5-5-5-7-7-7-7-7-7-7-7-10-10-10-10-10-10-10-10-|
 -3-3-3-3-3-3-3-3-5-5-5-5-5-5-5-5-7-7-7-7-7-7-7-7-10-10-10-10-10-10-10-10-|
 -3-3-3-3-3-3-3-3-3-3-3-3-3-3-3-3-5-5-5-5-5-5-5-5--8--8--8--8--8--8--8--8-|
 -1-1-1-1-1-1-1-1---------------------------------------------------------|

solo

|---------------------------------------------------------8---------------|
|---------------------------------------------6-5----8-10---8^----------0-|
|------------------------------------------5-------5-----------10-10-10---|
|-----------------------------------5-7-7---------------------------------|
|-10-8-7-5-5-3-5-7-7-8-7-5-5-5-3------------------------------------------|
|-------------------------------------------------------------------------|

letra da musica:

in the darkest tunnel it's nice to see a light, not just a headlight
like the one that's heading right for me
it would be nice if things could turn out right, turn out right yeah
don't think i'll ever see the day
i must have done something wrong, or maybe pissed off god
i think of chinese food when i think of life, that's sweet and sour
my life is sweet as saccharine
you know 3 week old milk and grapes are not, not the same no
i am the one johnny carcinogen
i must have fucked with some witch, in turn she cursed me, cursed my life
at the end of the longest line, that's where i will always be
if you need to find me, just go to, the end of the longest line
but officer that was a yellow light, the light was red son
insubordination, reckless driving, i must be wrong, this can't be right
i don't belong, this world is much to dangerous, 
for someone lacking luck, like me
	  

Search Paypal
auto scroll beats size up size down change color hide chords drawings
tab show chords e-chords YouTube Clip e-chords hide all tabs e-chords go to top tab