Nofx

home > Nofx

Sticking in My Eye Tab

Nofx

Difficulty: nolevelnolevel

tuner correct add songbook print version text version save to e-mail
chordsukulelecavacokeyboardtabbassdrumsharmonicsflute Guitar Pro
chords

Sticking in My Eye

  		INTRO pt1 (0:00) - Clean

|Guitar 1 - Repeat X6
|---------------------------------------------------
|---------------------------------------------------
|---------------------------------------------------
|-5--5--5--5--5--4--4--4--4--5--5--5--5--2--2--1--1-
|-7--7--7--7--7--5--5--5--5--3--3--3--3--2--2--2--2-
|---------------------------------------------------

|Guitar 2 (Comes in 3rd time) - Repeat X4
|------------------------X-X-X----------------------
|------------------------X-X-X----------------------
|------------------------X-X-X----------------------
|------------------------X-X-X----------------------
|------------------------X-X-X----------------------

///////////////////////////////////////////////////////////////////////////

INTRO pt2 (0:22)

|Guitar 1 - Repeat X3  |Repeat X1
|----------------------|------------------------
|----------------------|------------------------
|-9--9--11--11--12--11-|-7--7--7--7--9--9--9--9- (Play whole figure X2)
|----------------------|------------------------
|-7--7---9---9--10---9-|-5--5--5--5--7--7--7--7-
|----------------------|------------------------

|Guitar 2 - Repeat X2 (Guitar 1 plays once for every chord)
|------------------------------------------------
|------------------------------------------------
|-9--9--9--9--7--7--7--7--5--5--5--5--4--4--4--4-
|-9--9--9--9--7--7--7--7--5--5--5--5--4--4--4--4-
|-7--7--7--7--5--5--5--5--3--3--3--3--2--2--2--2-
|------------------------------------------------
  <---G1--->  <---G1--->  <---G1--->  <---G1--->

///////////////////////////////////////////////////////////////////////////

VERSE 1 (0:34)

|Guitar 1  |Repeat X1                       |Repeat X1
|----------|--------------------------------|----------------------------
|----------|--------------------------------|----------------------------
|-9--------|-12--12--12--12--12--12--11--11-|-12--12--11--11--9--8--9--8-
|---(hold)-|--------------------------------|----------------------------
|-7--------|-10--10--10--10--10--10---9---9-|-10--10---9---9--7--6--9--8-
|----------|--------------------------------|----------------------------
When I...  I hear the voices...             Sayin' things...

|Guitar 2 - Repeat X4
|------------------------------------------------
|------------------------------------------------
|-9--9--9--9--7--7--7--7--5--5--5--5--4--4--4--4-
|-9--9--9--9--7--7--7--7--5--5--5--5--4--4--4--4-
|-7--7--7--7--5--5--5--5--3--3--3--3--2--2--2--2-
|------------------------------------------------

///////////////////////////////////////////////////////////////////////////

CHORUS 1 (0:47)

|Guitars 1&2 - Repeat X2
|-------------------------------------------
|-------------------------------------------
|-9-----------------------------------------
|-9-(hold)---5----------7----------9--------
|-7----------5-(hold)---7-(hold)---9-(hold)-
|------------3----------5----------7--------

///////////////////////////////////////////////////////////////////////////

BRIDGE 1 (0:59)

|Guitars 1&2 - Repeat X4
|-----X-------------------------
|-----X-------------------------
|-----X--12--12--12--14---------
|-14--X--12--12--12--14--10--12-
|-14--X--10--10--10--12--10--12-
|-12--X-------------------8--10-

///////////////////////////////////////////////////////////////////////////

RIFF (1:11)

|Guitars 1&2 - Repeat X1 | Repeat X8
|-----------------|----------------
|---------8-------|----------------
|-----7h9---9-7-9-|----------------
|-7h9-------------|-9--9-9-9-9-9-9-
|-----------------|-9--9-9-9-9-9-9-
|-----------------|-7--7-7-7-7-7-7-
                       <---P.M--->

///////////////////////////////////////////////////////////////////////////

VERSE 2 (1:18)

|Guitar 1  |Repeat X1                       |Repeat X1
|----------|--------------------------------|----------------------------
|----------|--------------------------------|----------------------------
|-9--------|-12--12--11--11--12--12--11--11-|-12--12--11--11--9--8--9--8-
|---(hold)-|--------------------------------|----------------------------
|-7--------|-10--10---9---9--10--10---9---9-|-10--10---9---9--7--6--9--8-
|----------|--------------------------------|----------------------------
I feel...  Kill beneath the camera...       It's not from pity...

|Guitar 2 - Repeat X4
|------------------------------------------------
|------------------------------------------------
|-9--9--9--9--7--7--7--7--5--5--5--5--4--4--4--4-
|-9--9--9--9--7--7--7--7--5--5--5--5--4--4--4--4-
|-7--7--7--7--5--5--5--5--3--3--3--3--2--2--2--2-
|------------------------------------------------

///////////////////////////////////////////////////////////////////////////

CHORUS 2 (1:30)

|Guitars 1&2 - Repeat X1
|-------------------------------------------
|-------------------------------------------
|-9-----------------------------------------
|-9-(hold)---5----------7----------9--------
|-7----------5-(hold)---7-(hold)---9-(hold)-
|------------3----------5----------7--------

|Guitars 1&2 - Repeat X1
|-------------------------------------------------------------
|-------------------------------------------------------------
|-9-----------------------------------------------------------
|-9-(hold)---5----------7----------9--------9--------9--------
|-7----------5-(hold)---7-(hold)---9-(hold)-9-(hold)-9-(hold)-
|------------3----------5----------7--------7--------7--------

///////////////////////////////////////////////////////////////////////////

REPEAT INTRO pt2 (1:46)

///////////////////////////////////////////////////////////////////////////

BRIDGE 2 (1:58)

|Guitars 1&2 - Repeat X1
|----------
|----------
|----------
|-2--------
|-2-(hold)-
|-0--------

///////////////////////////////////////////////////////////////////////////

OUTRO pt1 (2:07)

|Guitar 1 - Repeat X1
|--------------------------------------------------------------
|--------------------------------------------------------------
|---------------------------------------12--12--12--14---------
|-2-------------------------------------10--10--10--14--10--12-
|-2-(held from previous)----------------10--10--10--12--10--12-
|-0------------------------------------------------------8--10-

|Guitar 2 - Repeat X1
|-----X------------------------------X-------------------------
|-----X------------------------------X-------------------------
|-----X--12--12--12--14--------------X--12--12--12--14---------
|-14--X--12--12--12--14--10--12--14--X--12--12--12--14--10--12-
|-14--X--10--10--10--12--10--12--14--X--10--10--10--12--10--12-
|-12--X-------------------8--10--12--X-------------------8--10-

///////////////////////////////////////////////////////////////////////////

OUTRO pt2 (2:13)

|Guitars 1&2 - Repeat X1
|-----X------------------------------X----------------------------------
|-----X------------------------------X--------------------------8-------
|-----X--12--12--12--14--------------X--12--12--12--14------7h9---9-7-9-
|-14--X--12--12--12--14--10--12--14--X--12--12--12--14--7h9-------------
|-14--X--10--10--10--12--10--12--14--X--10--10--10--12------------------
|-12--X-------------------8--10--12--X----------------------------------
	  

Search Paypal
auto scroll beats size up size down change color hide chords drawings
tab show chords e-chords YouTube Clip e-chords hide all tabs e-chords go to top tab