Nofx

home > Nofx

Please Stop Fucking My Mom Tab

Nofx

Difficulty: nolevelnolevel

by GABA%5FHxCx

tuner correct add songbook print version text version save to e-mail
chordsukulelecavacokeyboardtabbassdrumsharmonicsflute Guitar Pro
chords

Please Stop Fucking My Mom

(Fat Mike)

  		Intro 

e|---------------------------------------------------------------------------| 
B|---------------------------------------------------------------------------| 
G|-------------------- 7 --------------------------7-------------------------| 
D|--------2-2 5--5--5 ------------ 7 2-2 --------5--5--5-7-------------------| 
A|------- 2-2 5--5--5 ------------ 5 2-2 --------5--5--5-5-------------------| 
E|------- 0--0 3--3--3 ------------ 0--0 ----------3--3--3-------------------| 

Verso 

e|---------------------------------------------------------------------------| 
B|---------------------------------------------------------------------------| 
G|----------------------------7-7-7-7-7-9-9-9-9-9----------------------------| 
D|--------2-2-2-2-2-5-5-5-5-5-7-7-7-7-7---------9-9-9-9-9--------------------| 
A|--------2-2-2-2-2-5-5-5-5-5-5-5-5-5-5---------7-7-7-7-7--------------------| 
E|--------0-0-0-0-0-3-3-3-3-3------------------------------------------------| 

Refrão 

e|---------------------------------------------------------------------------| 
B|---------------------------------------------------------------------------| 
G|---------------------7---------------------------7-------------------------| 
D|--------2-2 5--5--5--------------7-2-2---------5--5--5-7-------------------| 
A|--------2-2 5--5--5--------------5-2-2---------5--5--5-5-------------------| 
E|--------0--0-3--3--3--------------0--0-----------3--3--3-------------------| 
	  

Search Paypal
auto scroll beats size up size down change color hide chords drawings
tab show chords e-chords YouTube Clip e-chords hide all tabs e-chords go to top tab