Nofx

home > Nofx

Please play this song on the radio Tab

Nofx

Difficulty: BeginnerBeginner

tuner correct add songbook print version text version save to e-mail
chordsukulelecavacokeyboardtabbassdrumsharmonicsflute Guitar Pro
chords

Please play this song on the radio

  		 
INTRO: A# (guitarra 2) 
 
e|---------------xx-------------| 
B|---------------xx-------------| 
G|---------------xx-------------| 
D|---------------xx-------------| 
A|-------3-----5-xx------3------| 
E|----0-----3----xx---0-----3-3-|(guitarra 1 e baixo fazem isso) 
 
 
SOLO : 
e|-------------------------------------------------------------------| 
B|-----------------------------8--------------------------8----------| 
G|--------------------7--9--7-----9--7-----------7--9--7-------------| 
D|--------5--7--7--9--------------------9--7--9----------------------| 
A|--5--7-------------------------------------------------------------| 
E|-------------------------------------------------------------------| 
 
e|-------------------------------10----------------------10-*-(12)---| 
B|------------------8--10-*-(12)------(12)-*-10--8-----8-------------| 
G|--9--7--9---7--9---------------------------------9-----------------| 
D|-------------------------------------------------------------------| 
A|-------------------------------------------------------------------| 
E|-------------------------------------------------------------------| 
 
e|--(12)--10------7---8--7---7---------------------------------------| 
B|------------------------------8------------------------------------| 
G|-------------------------------------------------------------------| 
D|-------------------------------------------------------------------| 
A|-------------------------------------------------------------------| 
E|-------------------------------------------------------------------| 
 
G             D                  E                  C 
We wrote this song, it's not too short it's not too long... 
 
G      D               A  A  A  A  A B C C 
Just before I sing the F word 
 
Solo: Second Solo 
e|-------------------------------------------------------------------| 
B|-------------15--15--------15--------15----------------------------| 
G|--14 * (16)----------(16)------(16)------(16)-*-14--12-------------| 
D|--------------------------------------------------------12---------| 
A|-------------------------------------------------------------------| 
E|-------------------------------------------------------------------| 
 
e|-------------------------------------------------------------------| 
B|------------------------------------------15-----------------------| 
G|--12-----------------------12--14-*-(16)------(16)--14--12---------| 
D|------14-----------12--14-----------------------------------14--12-| 
A|-----------12--14--------------------------------------------------| 
E|-------------------------------------------------------------------| 
 
--------------------| 
--------------------| 
---12---------------| 
-------14--12--14---| 
--------------------| 
--------------------| 
 
FIM : {G}:(sol) 
 
 
_______________________________________________________ 
Contribuição: lucas([email protected]) 

	  

Full key step upFull key step up
Half key step upHalf key step up
Half key step downHalf key step down
Full key step downFull key step down
Search Paypal
auto scroll beats size up size down change color hide chords drawings
tab show chords e-chords YouTube Clip e-chords hide all tabs e-chords go to top tab