Nofx

home > Nofx

My Vagina Tab

Nofx

Difficulty: nolevelnolevel

by 4nub1s

tuner correct add songbook print version text version save to e-mail
chordsukulelecavacokeyboardtabbassdrummharmonicsflute Guitar Pro
chords

My Vagina

  		Tuning: Standard 
 
Ok this tab is basically to show you the chord progressions. 
You can then pick up the strumming easily from listening to the song.  
The main intro isnt tabbed. 
 
 
GUITAR 1 
 						     VERSE 
 
e|---------------------------------------------------|------------------| 
B|---------------------------------------------------|------------------| 
G|----------7-7-7-0--------------------------7-7-7-0-|------------------| 
D|-2-2-2-0--7-7-7-0--7-7-7-7-7-7-0--2-2-2-0--7-7-7-0-|7-7-7-0-----------| 
A|-2-2-2-0--5-5-5-0--7-7-7-7-7-7-0--2-2-2-0--5-5-5-0-|7-7-7-0-----------| 
E|-0-0-0-0-----------5-5-5-5-5-5-0--0-0-0-0----------|5-5-5-0-----------| 
 
						        My vagina....... 
		        				My vagina....... 
 
e|----------------------------------------------------------------------| 
B|----------------------------------------------------------------------| 
G|-------------------7-7-7-0--------------------7-7-7-0--9-9-9-0--------| 
D|-4-4-4-0--2-2-2-0--7-7-7-0--7-7-7-0--4-4-4-0--7-7-7-0--9-9-9-0--------| 
A|-4-4-4-0--2-2-2-0--5-5-5-0--7-7-7-0--4-4-4-0--5-5-5-0--7-7-7-0--------| 
E|-2-2-2-0--0-0-0-0-----------5-5-5-0--2-2-2-0--------------------------| 
 
			        But I.......... 
				They took my... 
 
e|---------------------------------------------------------------------------| 
B|---------------------------------------------------------------------------| 
G|----------------------------7-7-7-0-----------------------------7-7-7-0----| 
D|-7-7-7-0--4-4-4-0--2-2-2-0--7-7-7-0--7-7-7-0--4-4-4-0--2-2-2-0--7-7-7-0----| 
A|-7-7-7-0--4-4-4-0--2-2-2-0--5-5-5-0--7-7-7-0--4-4-4-0--2-2-2-0--5-5-5-0----| 
E|-5-5-5-0--2-2-2-0--0-0-0-0-----------5-5-5-0--2-2-2-0--0-0-0-0-------------| 
 
     My vagina........ 
     Changing......... 
 
Chorus 
 
e|---------------------------------------------------------------------------| 
B|---------------------------------------------------------------------------| 
G|-4---4-4-4-4-4-4-----------------------------------------------------------| 
D|-4---4-4-4-4-4-4--2-2-2-2-2-2-2-0--7-7-7-7-7-7-7-7-0--4-4-4-4-4-4-4-4-0----| 
A|-2---2-2-2-2-2-2--2-2-2-2-2-2-2-0--7-7-7-7-7-7-7-7-0--4-4-4-4-4-4-4-4-0----| 
E|------------------0-0-0-0-0-0-0-0--5-5-5-5-5-5-5-5-0--2-2-2-2-2-2-2-2-0----| 
      {   palm       mute        } 
		 
	Operation.........             But now I.... 
 

	  

Search Paypal
auto scroll beats size up size down change color hide chords drawings
tab show chords e-chords YouTube Clip e-chords hide all tabs e-chords go to top tab