Nofx

home > Nofx

I Donīt Want You Around Tab

Nofx

Difficulty: nolevelnolevel

tuner correct add songbook print version text version save to e-mail
chordsukulelecavacokeyboardtabbassdrumsharmonicsflute Guitar Pro
chords

I Donīt Want You Around

  		 (1991)                     1/2
Cool ska-song, as a matter of fact the COOLEST ska-song by NOFX.
A=wide guitar   B=large guitar   A&B=both guitars
:
# ska-intro #A   X3                   
E----------------------------|       
B----------------------------|       
G----------------------------|       
D---9--9-12-12-11-11--9--9---|       
A---7--7-10-10--9--9--7--7---|       
E----------------------------|
:
# verse #A                                                                   >
E---------------------------------------------------------------------------->
B---------------------------------------------------------------------------->
G---------------------------------------------------------------------------->
D---9--9-12-12-11-11--9--9--9--9-12-12-11-11--9--9--9--9-12-12-11-11--9--9--->
A---7--7-10-10--9--9--7--7--7--7-10-10--9--9--7--7--7--7-10-10--9--9--7--7--->
E---------------------------------------------------------------------------->
# verse #B                                                                   >
E---------------------------------------------------------------------------->
B---------------------------------------------------------------------------->
G---------------------------------------------------------------------------->
D----------------99----------------------------------99---------------------->
A--77777-------77--7-------77887-------77557-------77--7-------77557--------->
E---------------------------------------------------------------------------->
>verseA
>----------------------------|       
>----------------------------|       
>----------------------------|       
>---9--9-12-12-11-11--9--9---|       
>---7--7-10-10--9--9--7--7---|       
>----------------------------|
>verseB
>----------------------------|       
>----------------------------|       
>----------------------------|       
>----------------------------|       
>--77887-------77557---------|       
>----------------------------|
:
# chorus #A&B
E-----------------------|
B-----------------------|
G---9------12-------7---|
D---9------12-------7---|
A---7------10-------5---|
E-----------------------|
:
# verse2 #A                                                                    
E----------------------------------------------------------------------------|
B----------------------------------------------------------------------------|
G----------------------------------------------------------------------------|
D---9--9-12-12-11-11--9--9--9--9-12-12-11-11--9--9--9--9-12-12-11-11--9--9---|
A---7--7-10-10--9--9--7--7--7--7-10-10--9--9--7--7--7--7-10-10--9--9--7--7---|
E----------------------------------------------------------------------------|
# verse2 #B                                                                   
E----------------------------------------------------------------------------|
B----------------------------------------------------------------------------|
G----------------------------------------------------------------------------|
D----------------99----------------------------------99----------------------|
A--77777-------77--7-------77887-------77557-------77--7-------77557---------|
E----------------------------------------------------------------------------|
:
Then play chorusA&B.
>>>>>>>>>>>>>to next page...
:
:
I DON'T WANT YOU AROUND                                                   2/2
:
# solo-background #A                                                         >
E---------------------------------------------------------------------------->
B---------------------------------------------------------------------------->
G---9------------12-------------7-------------9------------12-------------7-->
D---9------------12-------------7-------------9------------12-------------7-->
A---7------------10-------------5-------------7------------10-------------5-->
E---------------------------------------------------------------------------->
# solo #B                h=hammer-on    p=pull-off    (=bend-up              >
E--------------------------------------(--------------------------(---------->
B----------------12---12h14p12-10-----10-10-8---------------8----10-10--8-10->
G---9-----------------------------------------9------7-h-9------------------->
D---9------------------------------------------------------------------------>
A---7------------------------------------------------------------------------>
E---------------------------------------------------------------------------->
>solo-backgroundA
>---------------|
>---------------|
>---------------|
>---------------|
>---------------|
>---------------|
>soloB   \=slide down
>----(----------|
>---10-10-8-----|
>-----------9\--|
>---------------|             > Then play ska-introA X2 (guitarB is quiet),
>---------------|               verse2A or verse2B and finally verseA&B X3.
>---------------|
	  

Search Paypal
auto scroll beats size up size down change color hide chords drawings
tab show chords e-chords YouTube Clip e-chords hide all tabs e-chords go to top tab