Nofx

home > Nofx

Happy Break Up Song Tab

Nofx

Difficulty: EasyEasy

by Xpererience

tuner correct add songbook print version text version save to e-mail
chordsukulelecavacokeyboardtabbassdrumsharmonicsflute Guitar Pro
chords

Happy Break Up Song

  		Intro solo: 

e|-------------------- 
B|-------------------- 
G|--9-----9----7-6-7-- 
D|-----7-------------- 
A|-------------------- 
E|-------------------- 

play this 3 times and the fourth you play this: 

e|--------------------- 
B|--------------------- 
G|--9-----9----7-6----- 
D|-----7------------7-- 
A|--------------------- 
E|--------------------- 

then he sings and this is what the guitarrist plays: 

e|--------------------------------------------------- 
B|--------------------------------------------------- 
G|--------------------9-9-9-9-9-9-9---7-7-7-7-7-7-7-7 
D|--7-7-7-7-7-7-7-7---9-9-9-9-9-9-9---7-7-7-7-7-7-7-7 
A|--7-7-7-7-7-7-7-7---7-7-7-7-7-7-7---5-5-5-5-5-5-5-5 
E|--5-5-5-5-5-5-5-5---------------------------------- 

then comes this (second part): 

* up and down 
/ don't let ring 

e|--------------------------------------------------------- 
B|--------------------------------------------------------- 
G|------------------------------*7-/7-/7-7-/7-/7-7-/7-/7-/7 
D|--4--4--4--4----2--2--2--2----*7-/7-/7-7-/7-/7-7-/7-/7-/7 
A|--4--4--4--4----2--2--2--2----*5-/5-/5-5-/5-/5-5-/5-/5-/5 
E|--2--2--2--2----0--0--0--0------------------------------- 

play this 3 times and the fourth you play this: 

e|-------------------------------------------------- 
B|-------------------------------------------------- 
G|------------------------------7-7-7-7-7--9-9-9-9-9 
D|--4--4--4--4----2--2--2--2----7-7-7-7-7--9-9-9-9-9 
A|--4--4--4--4----2--2--2--2----5-5-5-5-5--7-7-7-7-7 
E|--2--2--2--2----0--0--0--0------------------------ 

After you play this you start from the begining. 

That's all! 

any doubt or problem: 
[email protected] 

	  

Search Paypal
auto scroll beats size up size down change color hide chords drawings
tab show chords e-chords YouTube Clip e-chords hide all tabs e-chords go to top tab