Nofx

home > Nofx

Freedom Like A Shopping Cart Tab

Nofx

Difficulty: nolevelnolevel

tuner correct add songbook print version text version save to e-mail
chordsukulelecavacokeyboardtabbassdrumsharmonicsflute Guitar Pro
chords

Freedom Like A Shopping Cart

  		Magnificent intro! This song has third guitar also.
A=Melvin   B=El Hefe   A&B=both   C=ghost (Melvin or Hefe)
:
# intro #B
E-----------------------------------------|
B-----------------------------------------|
G-----------------------------------------|
D---7-7-7-7-7-------7-7-7-7-7-------7-7---|
A---7-7-7-7-7-------7-7-7-7-7-------7-7---|
E---5-5-5-5-5-------5-5-5-5-5-------5-5---|
:
# intro2 #B X4
E------------------------------------------------------------------------|
B------------------------------------------------------------------------|
G------------------------------------------------------------------------|
D------------------------------------------------------------------------|
A---7-7-7-7-5-5-3-3--7-7-7-7-5-5-7-7--5-5-5-5-3-3-2-2--3-3-3-3-2-2-0-3---|
E------------------------------------------------------------------------|
:
# intro3 #A X2  !comes along when intro2 is played X2!    !pick-slide!
E------------------------------------------------------------------------|
B------------------------------------------------------------------------|
G--------------------5---------------------------------------------------|
D---7----------------5----------------5----------------7-----------------|
A---7----------------3----------------5----------------7-----------------|
E---5---------------------------------3----------------5-----------------|
:
# intro4 #C     !comes along when rhtyhm gets faster!
E------------------------------------------------------------------------|
B------------------------------------------------------------------------|
G------------------------------------------------------------------------|
D---7-7-7-7-7-7-7-7--5-5-5-5-5-5-5-5--5-5-5-5-5-5-5-5-10-10-10-10-9-9-7-7|
A------------------------------------------------------------------------|
E------------------------------------------------------------------------|
:
# end-intro #A
E------------------------------------------------------------------------|
B------------------------------------------------------------------------|
G--------------------5---------------------------------------------------|
D---7----------------5----------------5----------------2-----------------|
A---7----------------3----------------5----------------2-----------------|
E---5---------------------------------3----------------0-----------------|
# end-intro #B
E------------------------------------------------------------------------|
B------------------------------------------------------------------------|
G------------------------------------------------------------------------|
D------------------------------------------------------6-6-6-6-6-6-6-6---|
A---7-7-7-7-5-5-3-3--7-7-7-7-5-5-7-7--5-5-5-5-3-3-2-2--------------------|
E------------------------------------------------------------------------|
# end-intro #C
E------------------------------------------------------------------------|
B------------------------------------------------------------------------|
G------------------------------------------------------------------------|
D---7-7-7-7-7-7-7-7--5-5-5-5-5-5-5-5--5-5-5-5-5-5-5-5--6-6-6-6-6-6-6-6---|
A------------------------------------------------------------------------|
E------------------------------------------------------------------------|
:
# into-verse #A&B X4 !palm-muted! # verse #A   !B takes pick-slide!
E---------------------|           E----------------------------------|
B---------------------|           B----------------------------------|
G---------------------|           G----------------------------------|
D---2-2-2-2-2-2-2-2---|           D---7-------6-------4--------------|
A---0-0-0-0-0-0-0-0---|           A---------------------------pick---|
E---------------------|           E---------------------------slide--|
:
>>>>>>>>>>to next page...
:
FREEDOM LIKA SHOPPING CART                                                2/3
:
# chorus #A X2  !play all notes X14!
E-------------------------------|
B-------------------------------|
G-----------9---------------7---|
D---7-------9-------5-------7---|
A---7-------7-------5-------5---|
E---5---------------3-----------|
# chorus #B X2  !play all notes X14!
E-------------------------------|
B-------------------------------|
G---------------------------7---|
D---7-------2-------5-------7---|
A---7-------2-------5-------5---|
E---5-------0-------3-----------|
:
# verse2 #A    *=play 14X palm-muted
E--------------------------------------------------------------------|
B--------------*-------*-------*-------------------------------------|
G------*----6-6-----7-7-----4-4--------------------------------------|
D---7-7-----6-6-----7-7-----4-4-------7-------6-------4--------------|
A---7-7-----4-4-----5-5-----2-2-------------------------------pick---|
E---5-5-------------------------------------------------------slide--|
# verse2 #B    *=play 14X palm-muted
E--------------------------------------------------------------------|
B--------------*-------*-------*-----------------*-------*-------*---|
G------*----6-6-----7-7-----4-4----------*----6-6-----7-7-----4-4----|
D---7-7-----6-6-----7-7-----4-4-------7-7-----6-6-----7-7-----4-4----|
A---7-7-----4-4-----5-5-----2-2-------7-7-----4-4-----5-5-----2-2----|
E---5-5-------------------------------5-5----------------------------|
:
Then play chorusAX2 or BX2.
:
# bridge #A&B   X=waka-waka   !play all notes X5!  (Sleeping under rays...)
E-------------------------------------------------------|
B-------------------------------------------------------|
G---XXXXX-------------------6-----7-----------------7---|
D---XXXXX-7-----2-----4-----6-----7-----7-----9-----7---|
A---XXXXX-7-----2-----4-----4-----5-----7-----9-----5---|
E---------5-----0-----2-----------------5-----7---------|
:
# bridge2 #A   *=play all notes X8, use palm-muting
E-------------------------------------------------|
B-------------------------------------------------|
G---------------------7-----------------------7---|
D---7-----------4-----7-----7-----------4-----7---|
A---7-----6-----4-----5-----7-----6-----4-----5---|
E---5-----7-----2-----------5-----7-----2---------|
# bridge2 #B   *=play all notes X8, use palm-muting
E-------------------------------------------------|
B-------------------------------------------------|
G-------------------------------------------------|
D---------------8-----7-----------------8-----7---|
A---------------------------4-----6---------------|
E-------------------------------------------------|
:
>>>>>>>>>>>>to next page...
:
:
:
:
:
:
:
:
:
:
FREEDOM LIKA SHOPPING CART                                                3/3
:
# bridge3 #A   !play all notes X8!
E-------------------------|
B-------------------------|
G---------------------7---|
D---7-----------4-----7---|
A---7-----6-----4-----5---|
E---5-----7-----2---------|
# bridge #B    !play all notes X8!
E-------------------------|
B-------------------------|
G-------------------------|      > Then play verse2AX0.5 or BX0.5, chorusAX2
D--11-----------8-----7---|        or BX2 and bridgeA&B
A---------6---------------|
E-------------------------|
:
# outro #A   *=play all notes X8, use palm-muting
E-------------------------------------------------|
B-------------------------------------------------|
G---------------------7-----------------------7---|
D---7-----------4-----7-----7-----------4-----7---|
A---7-----6-----4-----5-----7-----6-----4-----5---|
E---5-----7-----2-----------5-----7-----2---------|
# outro #B   *=play all notes X8, use palm-muting
E-------------------------------------------------|
B-------------------------------------------------|
G-------------------------------------------------|
D---------------8-----7-----------------8-----7---|
A---4-----6-----------------4-----6---------------|
E-------------------------------------------------|
	  

Search Paypal
auto scroll beats size up size down change color hide chords drawings
tab show chords e-chords YouTube Clip e-chords hide all tabs e-chords go to top tab