Nofx

home > Nofx

Flossing a Dead Horse Tab

Nofx

Difficulty: nolevelnolevel

tuner correct add songbook print version text version save to e-mail
chordsukulelecavacokeyboardtabbassdrumsharmonicsflute Guitar Pro
chords

Flossing a Dead Horse

  		 !TUNING!
E-->D
B-->A
G-->F
D-->C
A-->G
E-->D
:
# intro #X2 !play all notes X4!  # verse #X2 !play all notes X4!
D---7---6---4---7---|            D---7---4---0---2---7---6---4---0---|
A---7---7---4---9---|            A---7---4---0---2---7---7---4---0---|
F---8---8---5---9---|            F---8---5---1---3---8---8---5---1---|
C---9---8---6---9---|            C---9---6---2---4---9---8---6---2---|
G---9---6---6---7---|            G---9---6---2---4---9---6---6---2---|
D---7-------4-------|            D---7---4---0---2---7-------4---0---|
   A  C#m  F#  D                    A   F#  D   E   A  C#m  F#  D
:
# chorus #
D----------------------7\---|
A--12-11-9-------------7\---|
F---------11-9-8------------|  > Then play verseX2 (all notes once).
C---------------11-9--------|
G---------------------------|
D---------------------------|
:
# chorus2 #   <<<=pick-slide
D---------------------------------------------------------------|
A---------------------------------------------------------------|
F-----------------------------------------------9999999911\-----|
C---2---4-6-6-4-----4---4-9-9-4-----2---4-6-6---9999999911\-----|
G---2---4-6-6-4-----4---4-9-9-4-----2---4-6-6---77777777-9\-<<<-|
D---0---2-4-4-2-----2---2-7-7-2-----0---2-4-4---------------<<<-|
:
# verse2 #X2 !play all notes X4!
D-----------------------------------|
A-----------------------------------|
F-----------------------8-----------|
C---9---6---2---4---9---8---6---2---|
G---9---6---2---4---9---6---6---2---|
D---7---4---0---2---7-------4---0---|
:
# chorus3 #
D-----------------------------------------------------------------|
A-----------------------------------------------------------------|
F-----------------------------------------------------------------|
C---2---4-6-6-4-----4---4-9-9-4-----2---4-6-6---2-----4-----8-9\--|
G---2---4-6-6-4-----4---4-9-9-4-----2---4-6-6---2-----4-----8-9\--|
D---0---2-4-4-2-----2---2-7-7-2-----0---2-4-4---0-----2-----6-7\--|
	  

Full key step upFull key step up
Half key step upHalf key step up
Half key step downHalf key step down
Full key step downFull key step down
Search Paypal
auto scroll beats size up size down change color hide chords drawings
tab show chords e-chords YouTube Clip e-chords hide all tabs e-chords go to top tab