Noce Kolle

Tristezas contínuas

Noce Kolle

tabs

save to print version add songbook text version e-mail correct tuner
chordsukulelecavacokeyboardtabbassdrumsharmonicaflute Guitar Pro
close

there isn't a video lesson for this song

chords

Tristezas contínuas

(Marcelo/Mico Meran)

	  		 
Intr.: 
E--------------------------------------- 
B--------------------------------------- 
G---------12-------------12-------------  Repetir 2x 
D--9--10------10--9--10------10--9------ 
A-----------------------------------12-- 
E--------------------------------------- 
                                                             (Gm Am) 
E---------------------------------------------------------- 
B---------------------------------------------------------- 
G---------12------------12-10-9---------------------------- 
D--9--10-----10--9--10----------12-10-9-------------------- 
A---------------------------------------12-10-9------------ 
E-----------------------------------------------12-10-9-7-- 
 
(Am Em Am) 
Tristezas contínuas do amor (4x) 
 
Com distorcãozinha... 
(G Am) 
No, nesse céu de blues 
 
Solo contínuo: 
E-------------------------------------------------- 
B-------------------------------------------------- 
G--12---12-12-12-10-9-10------12-12-12-10-9-10----- 
D------------------------10--------------------10--  Repetir 2x 
A-------------------------------------------------- 
E-------------------------------------------------- 
 
Com distorcãozinha... 
(G Am) 
No, nesse céu de blues 
 
(Gm Am Em) 
 
(Am Em Am) 
Tristezas contínuas do amor (4x) 
 
Com distorcãozinha... 
(G Am) 
No, nesse céu de blues 
 
 
_______________________________________________________ 
Contribuição: ([email protected]) 
		  

Full key step upFull key step up
Half key step upHalf key step up
Half key step downHalf key step down
Full key step downFull key step down
hide glossary

See also:

tabs Charlie Brown Jr. - Eu Protesto tabs Charlie Brown Jr. - Tudo que ela gosta de escutar tabs Charlie Brown Jr. - Sou Quem Eu Sou tabs Charlie Brown Jr. - Papo reto (Ver.2) tabs Charlie Brown Jr. - Quinta-feira (Acústico MTV) tabs Charlie Brown Jr. - Festa
e-chords

Other versions:

tabs Noce Kolle - Tristezas contínuas
auto scroll beats size up size down change color hide chords drawings
tab show chords e-chords YouTube Clip e-chords hide all tabs e-chords go to top tab

share