Noce Kolle

Chinaguda Disvairada

Noce Kolle

tabs

save to print version add songbook text version e-mail correct tuner
chordsukulelecavacokeyboardtabbassdrumsharmonicaflute Guitar Pro
close

there isn't a video lesson for this song

chords

Chinaguda Disvairada

	  		 
Riff 1 
--------------------------------------- 
-----5--------5--------4--------4------ 
---4---4----4---5----4---4----4---4----    
--------------------------------------- 
-2--------2--------2--------2---------- 
--------------------------------------- 
 
Riff 2 
 B         G    D 
---------------------------------------------- 
---------------------------------------------- 
-4-4-4-4--------7-7---------------------------  
-4-4-4-4---5-5--7-7--------------------------- 
-2-2-2-2---5-5--5-7--------------------------- 
-2-2-2-2---3-3-------------------------------- 
 
Riff 3 
 D 
---------------------------------------------- 
-------7--8--7-------------------------------- 
-5--7----------------------------------------- 
---------------------------------------------- 
---------------------------------------------- 
---------------------------------------------- 
 
Riff 4 
  A        C    G 
---------------------------------------------- 
---------------------------------------------- 
-----------5-5-------------------------------- 
--7-7-7-7--5-5--5-5--------------------------- 
--7-7-7-7--3-3--5-5--------------------------- 
--5-5-5-5-------3-3--------------------------- 
 
Riff 5 
 E    F 
---------------------------------------------- 
---------------------------------------------- 
---------------------------------------------- 
-2-2--3-3------------------------------------- 
-2-2--3-3------------------------------------- 
-0-0--1-1------------------------------------- 
 
 
 
Intro :  Riff 1 (4x) (s/ distorção) 
         Riff 2 (2x) (apartir daqui com distorção pesadaça) 
         Riff 2 com Riff 3 (2x) 
 
(Riff 2) 
Eu vou te dá uma porrada na tua cara 
Arrancá os dente e espancá a tua cuca 
Eu não aguento a tua cara, a tua fuça 
Vou te mostrá o que que faz a chinaguda!! 
 
 
Refrão  
(Riff 4) 
 A                             C        G 
China, china, china, china... China... Guda    2x 
Destrói a tua cara e arrebenta a tua fuça 
(Riff 5) 
      E         F 
Por Amor, Por Amor    2x 
 
 
Riff 2(4x) com Solo chinagudense 
 
 
Verso (Riff 2) 
Depois te dá carinho e uns bejo na boquinha 
Te mostra o amor mas tambem judia um poco 
Faz um xameguinho e provoca bem maroto 
Nunca tente provocar a chinaguda!! 
 
 
Repete Refrão 
 
_______________________________________________________ 
Contribuição: Eduardo Gonçalves([email protected]) 
		  

Full key step upFull key step up
Half key step upHalf key step up
Half key step downHalf key step down
Full key step downFull key step down
hide glossary

See also:

tabs Charlie Brown Jr. - Eu Protesto tabs Charlie Brown Jr. - Tudo que ela gosta de escutar tabs Charlie Brown Jr. - Sou Quem Eu Sou tabs Charlie Brown Jr. - Papo reto (Ver.2) tabs Charlie Brown Jr. - Quinta-feira (Acústico MTV) tabs Charlie Brown Jr. - Festa
e-chords

Other versions:

tabs Noce Kolle - Chinaguda Disvairada
auto scroll beats size up size down change color hide chords drawings
tab show chords e-chords YouTube Clip e-chords hide all tabs e-chords go to top tab

share