No Valley

Charlie Don't Surf

No Valley

tabs

by  TAMAMOREIRA

save to print version add songbook text version e-mail correct tuner
chordsukulelecavacokeyboardtabbassdrumsharmonicaflute Guitar Pro
close

there isn't a video lesson for this song

chords

Charlie Don't Surf

	  		
Intro: 
  Guitar 1 
e|------------------------------------------------------| 
B|------------------------------------------------------| 
G|------------------------------------------------------| 
D|-5-5-55555-5-555--10-10--10-10-10-10-10--10--10-10-10-| 
A|-5-5-55555-5-555--10-10--10-10-10-10-10--10--10-10-10-| 
E|-3-3-33333-3-333--8--8---8--8--8--8--8---8---8--8--8--| x2 

Chorus: 
  Guitar 1 (same as INTRO) 

  Guitar 2 
e|-------------------------------12----------12-| 
B|-------12----------12\---13-13----13-13-13----| 
G|-12-12----12-12-12----------------------------| 
D|----------------------------------------------| 
A|----------------------------------------------| 
E|----------------------------------------------| x2 
  Guitar 3 
e|---------------------------| 
B|---------------------------| 
G|-7---7/9-9---9\7-7---7/9-9-| 
D|---------------------------| 
A|---------------------------| 
E|---------------------------| 

Repeat INTRO x6 
Repeat Chorus 

BURN BURN A: 
e|-12-----13-----12-----13-----|----------------| 
B|-12-----12-----12-----12-----|----------------| 
G|-12-----12-----12-----12-----|----------------| 
D|-----------------------------|-10--10--10--10-| 
A|-----------------------------|-10--10--10--10-| 
E|-----------------------------|-8---8---8---8--| 

GUITAR SOLO A: 
  Guitar 1 
e|---------------------------------------------| 
B|-10-10-8-8-10-10-8-10--10-8-10-10/12-12-10-8-| 
G|---------------------------------------------| 
D|---------------------------------------------| 
A|---------------------------------------------| 
E|---------------------------------------------| x2 
  Guitar 2 
e|-3----8-----3----8---| 
B|-3----8-----3----8---| 
G|-4----9-----4----9---| 
D|-5----10----5----10--| 
A|-5----10----5----10--| 
E|---------------------| 

GUITAR SOLO B: 
  Guitar 1 
e|-17-17-15-15-17-17-15-17--17-15-17-17/19-19-17-15-| 
B|--------------------------------------------------| 
G|--------------------------------------------------| 
D|--------------------------------------------------| 
A|--------------------------------------------------| 
E|--------------------------------------------------| 

e|-17-17-15-15-17-17-15-17--17-15-17-17/20-19-17--| 
B|------------------------------------------------| 
G|------------------------------------------------| 
D|------------------------------------------------| 
A|------------------------------------------------| 
E|------------------------------------------------|1234 
  Guitar 2 
e|-3----8-----3----8---| 
B|-3----8-----3----8---| 
G|-4----9-----4----9---| 
D|-5----10----5----10--| 
A|-5----10----5----10--| 
E|---------------------| 
  Guitar 3 
e|---------------------------| 
B|---------------------------| 
G|-7---7/9-9---9\7-7---7/9-9-| 
D|---------------------------| 
A|---------------------------| 
E|---------------------------| 

Repeat INTRO x6 
Repeat Chorus 

BURN BURN B:                           x4 
e|-12-----13-----12-----13-----|----------------| 
B|-12-----12-----12-----12-----|----------------| 
G|-12-----12-----12-----12-----|----------------| 
D|-----------------------------|-10--10--10--10-| 
A|-----------------------------|-10--10--10--10-| 
E|-----------------------------|-8---8---8---8--| 

Bridge: 
  Guitar 1 
e|---------------------------------------------------------------------| 
B|---------------------------------------------------------------------| 
G|---------------------------------------------------------------------| 
D|-5-5-55555-5-555-7-7-77777-7-777-10-10--10-10-10-10-10--10--10-10-10-| 
A|-5-5-55555-5-555-7-7-77777-7-777-10-10--10-10-10-10-10--10--10-10-10-| 
E|-3-3-33333-3-333-5-5-55555-5-555-8--8---8--8--8--8--8---8---8--8--8--| 

e|---------------------------------------------------------| 
B|---------------------------------------------------------| 
G|---------------------------------------------------------| 
D|-xx10--xx9--xx7--xx5--xx3-3-33333-3-33333-3-33333-3-3333-| 
A|-xx10--xx9--xx7--xx5--xx3-3-33333-3-33333-3-33333-3-3333-| 
E|-xx8---xx7--xx5--xx3--xx1-1-11111-1-11111-1-11111-1-1111-| 

  Guitar 2 
e|---------------------------------------------------------------------| 
B|---------------------------------------------------------------------| 
G|---------------------------------------------------------------------| 
D|-5-5-55555-5-555-7-7-77777-7-777-10-10--10-10-10-10-10--10--10-10-10-| 
A|---------------------------------------------------------------------| 
E|---------------------------------------------------------------------| 

e|---------------------------------------------------------| 
B|---------------------------------------------------------| 
G|---------------------------------------------------------| 
D|-xx10--xx9--xx7--xx5--xx3-3-33333-3-33333-3-33333-3-3333-| 
A|---------------------------------------------------------| 
E|---------------------------------------------------------| 

  Guitar 3 
e|-------------------------------------------------| 
B|-------11----------11----------11----------11----| 
G|-14-14----14-14-14----14-14-14----14-14-14----14-| 
D|-------------------------------------------------| 
A|-------------------------------------------------| 
E|-------------------------------------------------| x2 

MULTI-LAYERED BIG-ASS OUTRO: 

  Guitar 1: 
e|-------------------------------------------------| 
B|-------------------------------------------------| 
G|-------------------------------------------------| 
D|-5-5-55555-5--7-9-10-10--10-10-10-10-10--10--9-7-| 
A|-5-5-55555-5--7-9-10-10--10-10-10-10-10--10--9-7-| 
E|-3-3-33333-3--5-7-8--8---8--8--8--8--8---8---7-5-| x4 but keep playing 

  Guitar 2: (comes in on 5th repetition of Gtr1) 
e|-----------------------| 
B|-----------------------| 
G|-7--7/9-9----7--7/9-9--| 
D|-----------------------| 
A|-----------------------| 
E|-----------------------| keep playing 

  Guitar 3: (comes in after Gtr2) 
e|-3----8-----3----8---| 
B|-3----8-----3----8---| 
G|-4----9-----4----9---| 
D|-5----10----5----10--| 
A|-5----10----5----10--| 
E|---------------------| keep playing 

  Guitar 4: (comes in after Gtr3) 
e|-------------------------------12----------12-| 
B|-------12----------12\---13-13----13-13-13----| 
G|-12-12----12-12-12----------------------------| 
D|----------------------------------------------| 
A|----------------------------------------------| 
E|----------------------------------------------| x4 

END CHORD: 
e|----3---------| 
B|----3---------| 
G|----4---------| 
D|----5---------| 
A|----5---------| 
E|----3---------|  
		  

auto scroll beats size up size down change color hide chords drawings
tab show chords e-chords YouTube Clip e-chords hide all tabs e-chords go to top tab

share