No Use For a Name

home > No Use For a Name

Redemption Song Tab

No Use For a Name

Difficulty: nolevelnolevel

tuner correct add songbook print version text version save to e-mail
chordsukulelecavacokeyboardtabbassdrumsharmonicsflute Guitar Pro
chords

Redemption Song

  		 
e-|---------------------------------------------------------------3-| 
B-|---------------------------------------------------------------0-| 
G-|---------------------------------------------------------------0-| 
D-|-----------2-0---------0-------------------2-0---------0-------0-| 
A-|---0-2---3-----0---0-2---3-2-0-----0-2---3-----0---0-2---3-2-0-2-| 
E-|-3-----3---------3-------------3-3-----3---------3-------------3-| 
 
e-|----------------------------------------------------------------- 
B-|----------------------------------------------------------------- 
G-|----------------------------------------------------------------- 
D-|-----------------5-5-----------------------------5-5------------- 
A-|-5-5-5-5-2-2-2-2-3-3-5-5-7-7-7-7-5-5-5-5-2-2-2-2-3-3-5-5-7-7-7-7- 
E-|-3-3-3-3-0-0-0-0-----3-3-5-5-5-5-3-3-3-3-0-0-0-0-----3-3-5-5-5-5- 
 
e-|-------------------------------------------------------------------------| 
B-|-------------------------------------------------------------------------| 
G-|-------------------------------------------------------------------------| 
D-|-----------------5-5-----------------------------5-5-----7-7-7-7-7-7-7-7-| 
A-|-5-5-5-5-2-2-2-2-3-3-5-5-7-7-7-7-5-5-5-5-2-2-2-2-3-3-5-5-5-5-5-5-5-5-5-5-| 
E-|-3-3-3-3-0-0-0-0-----3-3-5-5-5-5-3-3-3-3-0-0-0-0-----3-3-----------------| 
 
e-|----------------------------------------------------------------- 
B-|----------------------------------------------------------------- 
G-|----------------------------------------------------------------- 
D-|---------5-5-7-7-7-7---------5-5-7-7---------5-5-7-7-7-7--------- 
A-|-5-5-5-5-3-3-5-5-5-5-5-5-5-5-3-3-5-5-2-2-2-2-3-3-5-5-5-5-5-5-5-5- 
E-|-3-3-3-3-------------3-3-3-3---------0-0-0-0-------------3-3-3-3- 
 
e-|-------------------------| 
B-|-------------------------| 
G-|-------------------------| 
D-|-5-5-7-7---------5-5-7-7-| 
A-|-3-3-5-5-5-5-5-5-3-3-5-5-| 
E-|---------3-3-3-3---------| 
 
e-|----------------------------------------------------------------- 
B-|----------------------------------------------------------------- 
G-|----------------------------------------------------------------- 
D-|-----------------5-5-----------------------------5-5------------- 
A-|-5-5-5-5-2-2-2-2-3-3-5-5-7-7-7-7-5-5-5-5-2-2-2-2-3-3-5-5-7-7-7-7- 
E-|-3-3-3-3-0-0-0-0-----3-3-5-5-5-5-3-3-3-3-0-0-0-0-----3-3-5-5-5-5- 
 
e-|-------------------------------------------------------------------------| 
B-|-------------------------------------------------------------------------| 
G-|-------------------------------------------------------------------------| 
D-|-----------------5-5-----------------------------5-5-----7-7-7-7-7-7-7-7-| 
A-|-5-5-5-5-2-2-2-2-3-3-5-5-7-7-7-7-5-5-5-5-2-2-2-2-3-3-5-5-5-5-5-5-5-5-5-5-| 
E-|-3-3-3-3-0-0-0-0-----3-3-5-5-5-5-3-3-3-3-0-0-0-0-----3-3-----------------| 
 
e-|----------------------------------------------------------------- 
B-|----------------------------------------------------------------- 
G-|----------------------------------------------------------------- 
D-|---------5-5-7-7-7-7---------5-5-7-7---------5-5-7-7-7-7--------- 
A-|-5-5-5-5-3-3-5-5-5-5-5-5-5-5-3-3-5-5-2-2-2-2-3-3-5-5-5-5-5-5-5-5- 
E-|-3-3-3-3-------------3-3-3-3---------0-0-0-0-------------3-3-3-3- 
 
e-|-------------------------| 
B-|-------------------------| 
G-|-------------------------| 
D-|-5-5-7-7---------5-5-7-7-| 
A-|-3-3-5-5-5-5-5-5-3-3-5-5-| 
E-|---------3-3-3-3---------| 
 
e-|-----------------------------------------------------------------| 
B-|-----------------------------------------------------------------| 
G-|-----------------------------------------------------------------| 
D-|---------5-5-7-7---------5-5-7-7---------5-5-7-7---------5-5-7-7-| 
A-|-2-2-2-2-3-3-5-5-2-2-2-2-3-3-5-5-2-2-2-2-3-3-5-5-2-2-2-2-3-3-5-5-| 
E-|-0-0-0-0---------0-0-0-0---------0-0-0-0---------0-0-0-0---------| 
 
e-|----------------------------------------------------------------- 
B-|----------------------------------------------------------------- 
G-|----------------------------------------------------------------- 
D-|-----------------5-5-----------------------------5-5-----7-7-7-7- 
A-|-5-5-5-5-2-2-2-2-3-3-5-5-7-7-7-7-5-5-5-5-2-2-2-2-3-3-5-5-5-5-5-5- 
E-|-3-3-3-3-0-0-0-0-----3-3-5-5-5-5-3-3-3-3-0-0-0-0-----3-3--------- 
 
e-|-------------------------------------------------------------------------| 
B-|-------------------------------------------------------------------------| 
G-|-------------------------------------------------------------------------| 
D-|-----------------5-5-----------------------------5-5-----7-7-7-7-7-7-7-7-| 
A-|-5-5-5-5-2-2-2-2-3-3-5-5-7-7-7-7-5-5-5-5-2-2-2-2-3-3-5-5-5-5-5-5-5-5-5-5-| 
E-|-3-3-3-3-0-0-0-0-----3-3-5-5-5-5-3-3-3-3-0-0-0-0-----3-3-----------------| 
 
e-|----------------------------------------------------------------- 
B-|----------------------------------------------------------------- 
G-|----------------------------------------------------------------- 
D-|---------5-5-7-7-7-7---------5-5-7-7---------5-5-7-7-7-7--------- 
A-|-5-5-5-5-3-3-5-5-5-5-5-5-5-5-3-3-5-5-2-2-2-2-3-3-5-5-5-5-5-5-5-5- 
E-|-3-3-3-3-------------3-3-3-3---------0-0-0-0-------------3-3-3-3- 
 
e-|----------------------------------------------------------------- 
B-|----------------------------------------------------------------- 
G-|----------------------------------------------------------------- 
D-|-5-5-7-7---------5-5-7-7---------5-5-7-7-7-7---------5-5-7-7-7-7- 
A-|-3-3-5-5-5-5-5-5-3-3-5-5-2-2-2-2-3-3-5-5-5-5-5-5-5-5-3-3-5-5-5-5- 
E-|---------3-3-3-3---------0-0-0-0-------------3-3-3-3------------- 
 
e-|-------------------------------------| 
B-|-------------------------------------| 
G-|-------------------------------------| 
D-|---------5-5-7-7-7-7---------5-5-7-7-| 
A-|-5-5-5-5-3-3-5-5-5-5-5-5-5-5-3-3-5-5-| 
E-|-3-3-3-3-------------3-3-3-3---------| 
 
e-|-------------------------------------------------------------| 
B-|-------------------------------------------------------------| 
G-|-------------------------------------------------------------| 
D-|---------5---------x-x-5-x-x-7---------5-4-----------5-5-7-7-| 
A-|-2-2-2-2-3-2-2-2-2-x-x-3-x-x-5-2-2-2-2-3-2-5-2-2-2-2-3-3-5-5-| 
E-|-0-0-0-0---0-0-0-0-------------0-0-0-0-----3-0-0-0-0---------| 
 
 
 
 
_______________________________________________________ 
Contribuição: Eduardo de Campos P. Simões([email protected]) 
	  

Search Paypal
auto scroll beats size up size down change color hide chords drawings
tab show chords e-chords YouTube Clip e-chords hide all tabs e-chords go to top tab