No More Fear

Taranthell

No More Fear

tabs

by  JESSGOMES

save to print version add songbook text version e-mail correct tuner
chordsukulelecavacokeyboardtabbassdrumsharmonicaflute Guitar Pro
close

there isn't a video lesson for this song

chords

Taranthell

	  		

Intro 

|-5---5---5---5---5---5---3---1---5---5---5---5---5---5---3---1---| 
|-5---5---6---5---6---5---3---1---5---5---6---5---6---5---3---1---| 
|-----------------------------------------------------------------| 
|-----------------------------------------------------------------| 
|-----------------------------------------------------------------| 
|---0---0---0---0---0---0---0---0---0---0---0---0---0---0---0---0-| 

|--------------5---5---5---5---3---1----------------5---5-----| 
|--------------6---5---6---5---3---1----------------6---5-----| 
|-------------------------------------------------------------| 
|-------------------------------------------------------------| 
|-------------------------------------------------------------| 
|-5-5-3-5-5\0----0---0---0---0---0---0--5-5-3-5-5\0---0---0---| 

|--------------3---1---| 
|--------------3---1---| 
|----------------------| 
|----------------------| 
|----------------------| 
|-5-5-3-5-5\0----0---0-| 

|-5---5---5---5---5---5---3---1---5---5---5---5---5---5---3---1---| 
|-5---5---6---5---6---5---3---1---5---5---6---5---6---5---3---1---| 
|-----------------------------------------------------------------| 
|-----------------------------------------------------------------| 
|-----------------------------------------------------------------| 
|---0---0---0---0---0---0---0---0---0---0---0---0---0---0---0---0-| 

|----------------------------------------------------------| 
|----------------------------------------------------------| 
|----------------------------------------------------------| 
|-7*----7*--------5*------------5*-------------------------| 
|----0*----0*--8*----8*-7*---8*----8*-7*-8*-7*-5*-7*-8*-7*-| 
|----------------------------------------------------------| 

|------------------------------------------------------------------| 
|------------------------------------------------------------------| 
|------------------------------------------------------------------| 
|-7*----7*--------5*-----------5*----------------------------------| 
|----0*----0*--8*----8*-7*--8*----8*-7*-8*-7*-5*-7*-5*----5*-------| 
|------------------------------------------------------8*----8*-5--| 

|-----------------|---------------------------------------------------------| 
|-----------------|---------------------------------------------------------| 
|-----------------|---------------------------------------------------------| 
|-7-------7-------|-------7--------7--------8--------7--------8-8-8-7-2-7-2-| 
|-7-------7-------|-------7--------7--------8--------7--------8-8-8-7-2-7-2-| 
|-5-0-0-0-5-0-0-0-|-0-0-0-5--0-0-0-5--0-0-0-6--0-0-0-5--0-0-0-6-6-6-5-0-5-0-| 

|---------------------------------------------------------| 
|---------------------------------------------------------| 
|---------------------------------------------------------| 
|-------7--------7--------8--------7--------8-8-8-7-2-7-2-| 
|-------7--------7--------8--------7--------8-8-8-7-2-7-2-| 
|-0-0-0-5--0-0-0-5--0-0-0-6--0-0-0-5--0-0-0-6-6-6-5-0-5-0-| 

|---------------------------------------------------------| 
|---------------------------------------------------------| 
|---------------------------------------------------------| 
|-------7--------7--------8--------7--------8-8-8-7-2-7-2-| 
|-------7--------7--------8--------7--------8-8-8-7-2-7-2-| 
|-0-0-0-5--0-0-0-5--0-0-0-6--0-0-0-5--0-0-0-6-6-6-5-0-5-0-| 

|---------------------------------------------------------------------------| 
|---------------------------------------------------------------------------| 
|---------------------------------------------------------------------------| 
|------7--------7--------8--------7--------8-8-8--7*----5*------------------| 
|------7--------7--------8--------7--------8-8-8-----8*----7*-7-8-7-5-7-5---| 
|0-0-0-5--0-0-0-5--0-0-0-6--0-0-0-5--0-0-0-6-6-6--------------------------5-| 

|------------------------------------------------| 
|------------------------------------------------| 
|------------------------------------------------| 
|------------------------------------------------| 
|------------------------5-----------------------| 
|5-0-0-7-0-0-8-0-0-7-0-8---0-0-8-0-7-8-7-4-5-0-0-| 

|-------------------------------------------------| 
|-------------------------------------------------| 
|-------------------------------------------------| 
|-------------------------------------------------| 
|------------------------5------------------------| 
|5-0-0-7-0-0-8-0-0-7-0-8----8-7-8-7-4-5-0-0-0-0-0-| 

|------------------------------------------------| 
|------------------------------------------------| 
|------------------------------------------------| 
|------------------------------------------------| 
|------------------------5-----------------------| 
|5-0-0-7-0-0-8-0-0-7-0-8---0-0-8-0-7-8-7-4-5-0-0-| 

|-------------------------------------------------| 
|-------------------------------------------------| 
|-------------------------------------------------| 
|-------------------------------------------------| 
|------------------------5------------------------| 
|5-0-0-7-0-0-8-0-0-7-0-8----8-7-8-7-4-5-0-0-0-0-0-| 

|-------------|---------------------------------------------------------| 
|-------------|---------------------------------------------------------| 
|-------------|---------------------------------------------------------| 
|-7--2--7--2--|-------7--------7--------8--------7--------8-8-8-7-2-7-2-| 
|-7--2--7--2--|-------7--------7--------8--------7--------8-8-8-7-2-7-2-| 
|-5--0--5--0--|-0-0-0-5--0-0-0-5--0-0-0-6--0-0-0-5--0-0-0-6-6-6-5-0-5-0-| 

|---------------------------------------------------------------------------| 
|---------------------------------------------------------------------------| 
|---------------------------------------------------------------------------| 
|------7--------7--------8--------7--------8-8-8--7*----5*------------------| 
|------7--------7--------8--------7--------8-8-8-----8*----7*-7-8-7-5-7-5---| 
|0-0-0-5--0-0-0-5--0-0-0-6--0-0-0-5--0-0-0-6-6-6--------------------------5-| 

|------------------------------------------------| 
|------------------------------------------------| 
|------------------------------------------------| 
|------------------------------------------------| 
|------------------------5-----------------------| 
|5-0-0-7-0-0-8-0-0-7-0-8---0-0-8-0-7-8-7-4-5-0-0-| 

|-------------------------------------------------| 
|-------------------------------------------------| 
|-------------------------------------------------| 
|-------------------------------------------------| 
|------------------------5------------------------| 
|5-0-0-7-0-0-8-0-0-7-0-8----8-7-8-7-4-5-0-0-0-0-0-| 

|------------------------------------------------| 
|------------------------------------------------| 
|------------------------------------------------| 
|------------------------------------------------| 
|------------------------5-----------------------| 
|5-0-0-7-0-0-8-0-0-7-0-8---0-0-8-0-7-8-7-4-5-0-0-| 

|-------------------------------------------------| 
|-------------------------------------------------| 
|-------------------------------------------------| 
|-------------------------------------------------| 
|------------------------5------------------------| 
|5-0-0-7-0-0-8-0-0-7-0-8----8-7-8-7-5-8-7-5-7-5-4-| 

|-----------------------------------------------------| 
|-----------------------------------------------------| 
|---------------------------7-------------------------| 
|-7-----9-----10-----9---10-------10---9-10-9-6-7-----| 
|-----------------------------------------------------| 
|---0-0---0-0----0-0---0------0-0----0------------0-0-| 

|-------------------------------------------------| 
|-------------------------------------------------| 
|---------------------------7---------------------| 
|-7-----9-----10-----9---10---10-9-10-9-6-7-------| 
|-------------------------------------------------| 
|---0-0---0-0----0-0---0--------------------0-0-0-| 

|-----------------------------------------------------| 
|-----------------------------------------------------| 
|---------------------------7-------------------------| 
|-7-----9-----10-----9---10-------10---9-10-9-6-7-----| 
|-----------------------------------------------------| 
|---0-0---0-0----0-0---0------0-0----0------------0-0-| 

|-------------------------------------------------| 
|-------------------------------------------------| 
|---------------------------7---------------------| 
|-7-----9-----10-----9---10---10-9-10-9-6-7-------| 
|-------------------------------------------------| 
|---0-0---0-0----0-0---0--------------------0-0-0-| 

|-5---5---5---5---5---5---3---5---5---5---5---5---5---5---3---1---| 
|-5---5---6---5---6---5---3---5---5---5---6---5---6---5---3---1---| 
|-----------------------------------------------------------------| 
|-----------------------------------------------------------------| 
|-----------------------------------------------------------------| 
|---0---0---0---0---0---0---0---0---0---0---0---0---0---0---0---0-| 

|-5---5---5---5---5---5---3---5---5---5---5---5---5---5---3---1---| 
|-5-5-5-5-6-6-5-5-6-6-5-5-3-3-5-5-5-5-5-5-6-6-5-5-6-6-5-5-3-3-1-1-| 
|-----------------------------------------------------------------| 
|-----------------------------------------------------------------| 
|-----------------------------------------------------------------| 
|-----------------------------------------------------------------| 

|-------------------------------------|-------------------------------------| 
|-------------------------------------|-------------------------------------| 
|-------------------------------------|-------------------------------------| 
|-------------------------------5-----|-------------------------------5-----| 
|------------5-------5^8-7--7-8---8^7-|------------5-------5^8-7--7-8---8^7-| 
|-5-7-8-7-8----8-7^8------------------|-5-7-8-7-8----8-7^8------------------| 

|-------------------------------------|-------------------------------------| 
|-------------------------------------|-------------------------------------| 
|-------------------------------------|-------------------------------------| 
|-------------------------------5-----|-------------------------------5-----| 
|------------5-------5^8-7--7-8---8^7-|------------5-------5^8-7--7-8---8^7-| 
|-5-7-8-7-8----8-7^8------------------|-5-7-8-7-8----8-7^8------------------| 

|-----------------------------------------------------| 
|-----------------------------------------------------| 
|---------------------------7-------------------------| 
|-7-----9-----10-----9---10-------10---9-10-9-6-7-----| 
|-----------------------------------------------------| 
|---0-0---0-0----0-0---0------0-0----0------------0-0-| 

|-------------------------------------------------| 
|-------------------------------------------------| 
|---------------------------7---------------------| 
|-7-----9-----10-----9---10---10-9-10-9-6-7-------| 
|-------------------------------------------------| 
|---0-0---0-0----0-0---0--------------------0-0-0-| 

|-----------------------------------------------------| 
|-----------------------------------------------------| 
|---------------------------7-------------------------| 
|-7-----9-----10-----9---10-------10---9-10-9-6-7-----| 
|-----------------------------------------------------| 
|---0-0---0-0----0-0---0------0-0----0------------0-0-| 

|----------------------------------------------------------| 
|----------------------------------------------------------| 
|---------------------------7------------------------------| 
|-7-----9-----10-----9---10---10-9-10-9-6-7----------------| 
|--------------------------------------------------7-2-7-2-| 
|---0-0---0-0----0-0---0--------------------0-0-0--5-0-5-0-| 

|----------------------------------------------------| 
|----------------------------------------------------| 
|-----------------------7*-7*------------------------| 
|---7*-7*-9*-9*-10*-10*-------10*-10*-9*-9*-10-9-5-7-| 
|-7--------------------------------------------------| 
|----------------------------------------------------| 

|----------------------------------------------------| 
|----------------------------------------------------| 
|-----------------------7----------------------------| 
|---7*-7*-9*-9*-10*-10*---10-9-7*--------------------| 
|-7-------------------------------7*-----------------| 
|----------------------------------------------------| 

|------------------------------------------------------------| 
|------------------------------------------------------------| 
|------------------------------------------------------------| 
|-11*--12*--11*-14*-12*-11*--12^11^9--11^9^7-----------------| 
|---------------------------------------------7-9-10-9-7-9-7-| 
|------------------------------------------------------------| 

|----------------------------------------------------------------------| 
|----------------------------------------------------------------------| 
|-9-9-7-7-9-9-----9-9-10-10-9^10^9^7^9--9*-10*-13*-10*-14*-13*-16*-10*-| 
|-------------7-7------------------------------------------------------| 
|----------------------------------------------------------------------| 
|----------------------------------------------------------------------| 

|----------------------------------------------------8-10-12-13-12-13-15-17*-| 
|--------------------------------------------8-10-12-------------------------| 
|-9-9-7-7-9-9-----9-9-10-10-9^10^9^7^9--9-10---------------------------------| 
|-------------7-7------------------------------------------------------------| 
|----------------------------------------------------------------------------| 
|----------------------------------------------------------------------------| 

|-----| 
|-----| 
|-----|                               THE END 
|---2-| 
|-2-0-| 
|-0---| 

 
		  

auto scroll beats size up size down change color hide chords drawings
tab show chords e-chords YouTube Clip e-chords hide all tabs e-chords go to top tab

share