Nirvana

home > Nirvana

You know you re right Tab

Nirvana

Difficulty: BeginnerBeginner

by KURT+CONBAI

tuner correct add songbook print version text version save to e-mail
chordsukulelecavacokeyboardtabbassdrumsharmonicsflute Guitar Pro
chords

You know you re right

  		G|----------------------------| 
D|----------------------------| 
A|------4---------4-----------| 
E|----2---2-0---2---22-0h2----| 

I will never bother you 
I will never promise to 
I will never follow you 
I will never bother you 
 
 
G|--2-2-0-2-0-2-2-0-0----| 
D|--2-2-0-2-0-2-2-0-0----| 
A|--2-2-0-2-0-2-2-0-0----| 
E|-----------------------| 
Never speak a word again 
I will crawl away for good 
 
A|------4---------4-----------| 
E|----2---2-0---2---22-0h2----| 
I will move away from here 
You wont be afraid of fear 
No thought was put in to this 
I always knew it would come to this 
 
 
 
G|----------7-----7-------------9-----9---------| 
D|-----7------7-----7------9------9-----9-------| 
A|---5-------------------7----------------------| 
E|----------------------------------------------| 
Things have never been so swell 
I have never failed to fail 
 
 
G|------------------------------| 
D|----------4-------------------| 
A|----------4-4-----4-4---------| 
E|----0h2-2-2-2--0--2-2--2-2----| 
Pain 
Pain 
Pain 
You know you're right 
You know you're right 
You know you're right 
A|------4---------4-----------| 
E|----2---2-0---2---22-0h2----| 
I'm so warm and calm inside 
I no longer have to hide 
Let's talk about someone else 
Steaming soup against her mouth 
 
 
e 
G|----------7-----7-------------9-----9---------| 
D|-----7------7-----7------9------9-----9-------| 
A|---5-------------------7----------------------| 
E|----------------------------------------------| 
Nothing really bothers her 
She just wants to love herself 
 
A|------4---------4-----------| 
E|----2---2-0---2---22-0h2----| 
I will move away from here 
You wont be afraid of fear 
No thought was put into this 
I always knew to come like this 
5 
Things have never been so swell 
I have never failed to fail 
 
 
 
G|------------------------------| 
D|----------4-------------------| 
A|----------4-4-----4-4---------| 
E|----0h2-2-2-2--0--2-2--2-2----| 
 
Pain 
Pain 
Pain 
Pain 
D5   E5 
Pain 
 
 
 
G|------------------------------| 
D|----------4-------------------| 
A|----------4-4-----4-4---------| 
E|----0h2-2-2-2--0--2-2--2-2----| 
 
You know you're right (18X)  

	  

Full key step upFull key step up
Half key step upHalf key step up
Half key step downHalf key step down
Full key step downFull key step down
Search Paypal
auto scroll beats size up size down change color hide chords drawings
tab show chords e-chords YouTube Clip e-chords hide all tabs e-chords go to top tab