Nirvana

home > Nirvana

Touretts Tab

Nirvana

Difficulty: nolevelnolevel

by europeu

tuner correct add songbook print version text version save to e-mail
chordsukulelecavacokeyboardtabbassdrumsharmonicsflute Guitar Pro
chords

Touretts

  		intro/verse 
e-------------------------------- 
B-------------------------------- 
G---------3-3-3-3-4-4-4-4-------- 
D-4-4-4-4-3-3-3-3-4-4-4-4-5-5-5-5 
A-4-4-4-4-1-1-1-1-2-2-2-2-5-5-5-5 
E-2-2-2-2-----------------3-3-3-3 
 
 
Chorus 
e------------ 
B------------ 
G---4-2-2-4p0 
D-4---------- 
A-4---------- 
E-2---------- 
 

	  

Search Paypal
auto scroll beats size up size down change color hide chords drawings
tab show chords e-chords YouTube Clip e-chords hide all tabs e-chords go to top tab