Nirvana

Smells like teen spirts Tab

Nirvana

Difficulty: AdvancedAdvanced

by LucasJF+metal

tuner correct add songbook print version text version save to e-mail
chordsukulelecavacokeyboardtabbassdrumsharmonicsflute Guitar Pro
close

there isn't a video lesson for this song

request
chords

Smells like teen spirts

  		riff 1  
1|------------------------------------------|  
2|------------------------------------------|  
3|------------------------------------------|  
4|-3-3/9-9---------77------12-12------------|  
5|-3-3/9-9---------77------12-12------------|  
6|-1-1/7-7---------55------9--9-------------|  
  
1|------1-----------------------------------|  
2|-1----------------------------------------|  
riff 2  
  
vc tok o riff 1 umas vezes na introdução e tok o riff 2 quase a musik intera, e volta  
a tok o riff 1 nos refroes.  
  
 

	  

Search Paypal
auto scroll beats size up size down change color hide chords drawings
tab show chords e-chords YouTube Clip e-chords hide all tabs e-chords go to top tab

share with facebook