Nirvana

Smells like teen spirit (vrs. original e Completa) Tab

Nirvana

Difficulty: ExpertExpert

by principe%5FBoddaH

tuner correct add songbook print version text version save to e-mail
chordsukulelecavacokeyboardtabbassdrumsharmonicsflute Guitar Pro
close
smells-like-teen-spirit

there is a video lesson for this song

view more
chords

Smells like teen spirit (vrs. original e Completa)

  		Essa musica é diferente da outra versão q eu escrevi essa é a original. Sei q essa é a segunda versão dessa música mais as duas são completamente diferente mais são bem parecidas, no som. 
 
    -111-xxx-11--444-xxx-44--- 
    -111-xxx-11--444-xxx-44--- 
    -111-xxx-22--444-xxx-66---     
    -222-xxx-22--666-xxx-66---   
    -222-xxx-11--666-xxx-44--- 
    -111-xxx-11--444-xxx-44--- 
 
    -111-xxx-11--444-xxx-44--- 
    -111-xxx-11--444-xxx-44--- 
    -111-xxx-22--444-xxx-66---    
    -222-xxx-22--666-xxx-66---  
    -222-xxx-11--666-xxx-44--- 
    -111-xxx-11--444-xxx-44--- 
  
   ------------- 
   ------------- 
   -------------  5X 
   --5----------  
   --6---------- 
   ------------- 
esse solo é muito parecido com o acima mais, é preciso tocar mais rábido com a distorção on 
--------------------- 
--------------------- 
-5-6-5-6-5-6-5-6---   
--------------------- 
--------------------- 
--------------------- 
 
    -111-xxx-11--444-xxx-44--- 
    -111-xxx-11--444-xxx-44--- 
    -111-xxx-22--444-xxx-66---   6X 
    -222-xxx-22--666-xxx-66---  
    -222-xxx-11--666-xxx-44--- 
    -111-xxx-11--444-xxx-44--- 
 
Essa parte a baixo é preciso tocar como se fosse acordes normais 
 
    -111--11--444--4444--- 
    -111--11--444--4444--- 
    -111--22--444--6666---   2X 
    -222--22--666--6666---  
    -222--11--666--4444--- 
    -111--11--444--4444--- 
 
 
   ------------- 
   ------------- 
   -------------  5X 
   --5----------  
   --6---------- 
   ------------- 
  
 
--------------------- 
--------------------- 
-5-6-5-6-5-6-5-6-5-   
--------------------- 
--------------------- 
--------------------- 
 
    -111-xxx-11--444-xxx-44--- 
    -111-xxx-11--444-xxx-44--- 
    -111-xxx-22--444-xxx-66---   6X 
    -222-xxx-22--666-xxx-66---  
    -222-xxx-11--666-xxx-44--- 
    -111-xxx-11--444-xxx-44--- 
 
essa parte abaixo é parecida com a introdução 
 
    -111--11--444--4444--- 
    -111--11--444--4444--- 
    -111--22--444--6666---   2X 
    -222--22--666--6666---  
    -222--11--666--4444--- 
    -111--11--444--4444--- 
 
 ------------------------------------------------------- 
 --1--4--6-----4-6-4--2--1--2--1---------------------- 
 -------------1---------------------3--1--3-5-3--1--0--    3X  
 -------------------------------------------------------  
 ------------------------------------------------------- 
 ------------------------------------------------------- 
 
  
 ------------------------------------- 
 ------------------------------------ 
 ---1-0---1-0---1-0---1-0-0--------  4X 
 ------------------------------3----  
 ------------------------------------- 
 ------------------------------------ 
 
 
Agora o Kurt só canta, e o Krist e o Dave fazen um fundo 
agora ele toca essa pate 
 
 
--------------------- 
--------------------- 
-5-6-5-6-5-6-5-6--   
--------------------- 
--------------------- 
--------------------- 
 
    -111-xxx-11--444-xxx-44--- 
    -111-xxx-11--444-xxx-44--- 
    -111-xxx-22--444-xxx-66---   10X 
    -222-xxx-22--666-xxx-66---  
    -222-xxx-11--666-xxx-44--- 
    -111-xxx-11--444-xxx-44--- 
 
-1---- 
-1----  deixa o som dessa nota soar livre 
-1---- 
-2---- 
-2---- 
-1---- 
 

	  

Search Paypal
auto scroll beats size up size down change color hide chords drawings
tab show chords e-chords YouTube Clip e-chords hide all tabs e-chords go to top tab

share with facebook