Nirvana

home > Nirvana

Smells like teen Spirit - Solo Tab

Nirvana

Difficulty: ExpertExpert

by kurt%5Fstringer

tuner correct add songbook print version text version save to e-mail
chordsukulelecavacokeyboardtabbassdrumsharmonicsflute Guitar Pro
chords

Smells like teen Spirit - Solo

  		This is the real version 
 
/: slide 
 
---------------------------------------| 
---------------------------------------| 
---7-9---7--9--7-5-6--5-6--------5------| 
10-----5------------------7-5--7---7-5-6| 
---------------------------------------| 
---------------------------------------| 
 
----------------------------------------------------------| 
----------------------------------------------------------| 
---7-9---7/9--7-5-4--5-4---------4------------------------| 
10-----5------------------7-5--7---7-5-6--5-6--5-6--5-6--3| 
----------------------------------------------------------| 
----------------------------------------------------------| 
 
 

	  

Search Paypal
auto scroll beats size up size down change color hide chords drawings
tab show chords e-chords YouTube Clip e-chords hide all tabs e-chords go to top tab