Nirvana

home > Nirvana

Smells like teen spirit (main riff) Tab

Nirvana

Difficulty: ExpertExpert

by stjimmy111

tuner correct add songbook print version text version save to e-mail
chordsukulelecavacokeyboardtabbassdrumsharmonicsflute Guitar Pro
chords

Smells like teen spirit (main riff)

  		e---------------------- 
B---------------------- 
G---------------------- 
D-3-3--8-8-8-8--6-6---- 
A-3-3--8-8-8-8--6-6---- 
E-1-1--6-6-6-6--4-4---- 
 
 
e---------------------- 
B---------------------- 
G---------------------- 
D-10-10-10-10---------- 
A-10-10-10-10---------- 
E--8--8--8--8---------- 
 
 
Just play EAD 
 

	  

Search Paypal
auto scroll beats size up size down change color hide chords drawings
tab show chords e-chords YouTube Clip e-chords hide all tabs e-chords go to top tab