Nirvana

home > Nirvana

Smells Like Team Spirit Tab

Nirvana

Difficulty: ExpertExpert

by Hankey

tuner correct add songbook print version text version save to e-mail
chordsukulelecavacokeyboardtabbassdrumsharmonicsflute Guitar Pro
chords

Smells Like Team Spirit

  		Coloque o efeito d som "metálico"  
 
|--1-1--1-1-1----4-4--4-4-4----1-1--1-1-1----4-4--4-4-4------0-5-| 
|--1-1--1-1-1----4-4--4-4-4----1-1--1-1-1----4-4--4-4-4-----------| 
|--1-1--3-3-3----4-4--6-6-6----1-1--3-3-3----4-4--6-6-6-----------| 
|--3-3--3-3-3----6-6--6-6-6----3-3--3-3-3----6-6--6-6-6-----------| 
|--3-3--1-1-1----6-6--4-4-4----3-3--1-1-1----6-6--4-4-4-----------| 
|--1-1--1-1-1----4-4--4-4-4----1-1--1-1-1----4-4--4-4-4-----------|  
 
|--0-0--0-0-0----0-0--0-0-0| 
|--0-0--0-0-0----0-0--0-0-0| 
|--0-0--3-3-3----0-0--6-6-6| 
|--3-3--1-1-1----6-6--4-4-4| 
|--1-1--0-0-0----4-4--0-0-0| 
|--0-0--0-0-0----0-0--0-0-0| 
 
*Lembre-se de fazer o colorido nas mudanças de acorde! 
 
  
 
Tablatura by Mr.Hankey 
	  

Search Paypal
auto scroll beats size up size down change color hide chords drawings
tab show chords e-chords YouTube Clip e-chords hide all tabs e-chords go to top tab