Nirvana

home > Nirvana

Smell like teen spirit(Solo) Tab

Nirvana

Difficulty: BeginnerBeginner

by rednirjam

tuner correct add songbook print version text version save to e-mail
chordsukulelecavacokeyboardtabbassdrumsharmonicsflute Guitar Pro
chords

Smell like teen spirit(Solo)

  		 
  PEGUE O RITIMO. 
E|--------------------------------- 
B|---------------------------------- 
G|-4--7--9---7-8--5-4-5-4------------- 
D|---------5--------------7-5-8--5-4-| 
A|-------------------------------- 
E|-------------------------- 
 
G|-4--7--9----7-8--5-4--5-4--------------------------------------------- 
D|---------5----------------7--5-8-5-4-5-4-5-4-5-4-5---5-4-5-4-5-4-5---- 
A|---------------------------------------------------7-----------------7 
 
 
VALEU GALERA SE FICAREM  
COM D┌VIDAS MEU E-MAIL ╔ [email protected] 
 
PORTO VILMA MS JP FORNO VIADO  

	  

Search Paypal
auto scroll beats size up size down change color hide chords drawings
tab show chords e-chords YouTube Clip e-chords hide all tabs e-chords go to top tab