Nirvana

smell like teen spirit (ver. 2) Tab

Nirvana

Difficulty: BeginnerBeginner

by ivan+goulart

tuner correct add songbook print version text version save to e-mail
chordsukulelecavacokeyboardtabbassdrumsharmonicsflute Guitar Pro
close

there isn't a video lesson for this song

chords

smell like teen spirit (ver. 2)

  		Ivan Goulart 
 
Intro: F5 A#5 G#5 C#5 (pode ser representado em tablatura!) 
 
 
e|------1| 
B|--1----| 
G|--------| x 2 
D|--------| 
A|-------| 
E|--------| 
 
-------------//------------------------------------//-------------------//-------| 
 
Parte1: 
e|-------------1-----------------------------------------------------------| 
B|--1---4----------------4b--2--1--2--1-----------------------------| 
G|------------------1-------------------------3--1---3---5----1----0-|  x 2 
D|------------------------------------------------------------------------| 
A|------------------------------------------------------------------------| 
E|------------------------------------------------------------------------| 
 
e|----------------------------------------| 
B|----------------------------------------| 
G|---1--0--1--0--1--0-----1--0------| x 3 
D|------------------------------------3--| 
A|---------------------------------------| 
E|---------------------------------------| 
 
----------------//---------------//---------| 
Repete a introdução               | 
---------//-------------//------------------| 
Repete parte 1                       | 
---------//-------------//------------------| 
Repete introdução                  | 
---------//-------------//------------------| 
Repete parte 1 duas vezes     | 
--------//--------------//------------------| 
repete introdução 

	  

Full key step upFull key step up
Half key step upHalf key step up
Half key step downHalf key step down
Full key step downFull key step down
auto scroll beats size up size down change color hide chords drawings
tab show chords e-chords YouTube Clip e-chords hide all tabs e-chords go to top tab

share with facebook

Search Paypal