Nirvana

Smell Like Teen Spirit (full) Tab

Nirvana

Difficulty: BeginnerBeginner

by madman1133

tuner correct add songbook print version text version save to e-mail
chordsukulelecavacokeyboardtabbassdrumsharmonicsflute Guitar Pro
close

there isn't a video lesson for this song

request
chords

Smell Like Teen Spirit (full)

(Cobain / Grohl / Novoselic)

  		riff 1 (x = mute)= intro 
 
e---------------------- 
b---------------------- 
g------3-x-----2-------     x 6 
d--3-x-3-x-2-x-2------- 
a--3-x-1-x-2-x-4------- 
e--1-x-----4-x--------- 
 
riff 2/ verse 
 
e---------------------- 
b---------------------- 
g----10----------------     x 6 
d--10------------------ 
a---------------------- 
e---------------------- 
 
riff 3/ pre-Chorus 
 
e---------------------- 
b---------------------- 
g--------10------------     x 16 
d--10-10--------------- 
a---------------------- 
e---------------------- 
 
riff 1 plus this riff below = Chorus 
  
e---------------------- 
b---------------------- 
g---------------------- 
d--3-5x-3-5x----------- 
a--3-5x-3-5x----------- 
e--1-3x-1-3x----------- 
 
riff 2 
 
riff 3 
 
Chorus 
 
solo: 
 
e---------------------------------------- 
b---------------------------------------- 
g--5-8-10---8-10-8-6-5-6-5-3-1-3-5-3-1-0-     x 2    
d---------6------------------------------ 
a---------------------------------------- 
e---------------------------------------- 
 
not done 
 
e---------------------------------------- 
b---------------------------------------- 
g--1-0-1-0-1-0-1-0-----------------------     x 4 
d------------------3--------------------- 
a---------------------------------------- 
e---------------------------------------- 
 
last verse has no guitar 
 
riff 3 
 
Chorus 
 
ending: 
 
e---------------------- 
b---------------------- 
g------3-x-----2-------     x 4 
d--3-x-3-x-2-x-2------- 
a--3-x-1-x-2-x-4------- 
e--1-x-----4-x--------- 

	  

Search Paypal
auto scroll beats size up size down change color hide chords drawings
tab show chords e-chords YouTube Clip e-chords hide all tabs e-chords go to top tab

share with facebook