Nirvana

home > Nirvana

Smeels Like Teen Spirit (solo) Tab

Nirvana

Difficulty: BeginnerBeginner

by Slashslash

tuner correct add songbook print version text version save to e-mail
chordsukulelecavacokeyboardtabbassdrumsharmonicsflute Guitar Pro
chords

Smeels Like Teen Spirit (solo)

(Cobain / Grohl / Novoselic)

  		Solo ceto da música Smeels Like Teen Spirit - Nirvana 
 
 
e|---------------------------------------------------| 
B|---------------------------------------------------| 
G|----8-10-----9-9b^-6-5-6-5-------------------------| 
D|-10------------------------8-6-8-8b^-6-5-----------| 
A|---------11----------------------------------------| 
E|---------------------------------------------------| 
 
e|----------------------------------------------------------------| 
B|----------------------------------------------------------------| 
G|----8-10-----9-9b^-6-5-6-5--------------------------------------| 
D|-10------------------------8-6-8-8b^-6-5-6-5-6-5-6-5-6-5-5-3----| 
A|---------11--------------------------|------4 vezes--------|----| 
E|----------------------------------------------------------------| 
 
Por [email protected] 

	  

Search Paypal
auto scroll beats size up size down change color hide chords drawings
tab show chords e-chords YouTube Clip e-chords hide all tabs e-chords go to top tab