Nirvana

Smeel Like Teen Spirit Tab

Nirvana

Difficulty: BeginnerBeginner

by eOoO

tuner correct add songbook print version text version save to e-mail
chordsukulelecavacokeyboardtabbassdrumsharmonicsflute Guitar Pro
close

there isn't a video lesson for this song

request
chords

Smeel Like Teen Spirit

  		1 RIFF 
E|----------------------------------------------------| 
B|----------------------------------------------------| 
G|------------3-3-3--xxx----------------6-6-6---------| 
D|-3-3--xxx---3-3-3--xxx---6-6--xxx-----6-6-6---------| 
A|-3-3--xxx---1-1-1--xxx---6-6--xxx-----4-4-4---------| 
E|-1-1--xxx----------------4-4--xxx-------------------| 
 
2 RIFF 
E|-----0----------------------------------------------| 
B|--0-------------------------------------------------| 
G|----------------------------------------------------| 
D|----------------------------------------------------| 
A|----------------------------------------------------| 
E|----------------------------------------------------| 

	  

Search Paypal
auto scroll beats size up size down change color hide chords drawings
tab show chords e-chords YouTube Clip e-chords hide all tabs e-chords go to top tab

share with facebook