Nirvana

home > Nirvana

Raunchola / Moby Dick Tab

Nirvana

Difficulty: ExpertExpert

tuner correct add songbook print version text version save to e-mail
chordsukulelecavacokeyboardtabbassdrumsharmonicsflute Guitar Pro
chords

Raunchola / Moby Dick

  		Afinação DADGBE 
 
----0--0-------------- 
----0--0-------------- 
----1--1-------------- 
--2------------------ 
--2------------------ 
--2------------------ 
 
 
--0~--- 
--0~--- 
--1~---	  verso 
------- 
------- 
------- 
 
-------------------------- 
-------------------------- 
------5-5--7-7-7-7-7-7-7-- 
--5-5-5-5--7-7-7-7-7-7-7--	Refrão 
--5-5-3-3--5-5-5-5-5-5-5-- 
--5-5--------------------- 
 
 
------------------------|---------| 
------------------------|---------| 
------------------------|---------| 
-2-0-2-0-2-0-2-0-2/3-0--|---------| 
-2-0-2-0-2-0-2-0-2/3-0--|--3^-0---| 
-2-0-2-0-2-0-2-0-2/3-0--|---------| 
Refrão 2			fim do refrão 2  
 
-------------------------| 
-------------------------| 
-------------------------| 
-------------------------|   x2 
----5-5-3----------------| 
--0-------5-3-5-3-5-3-0--| 
 
---------------------| 
---------------------| 
---------------------| 
-----5-5-3-0---------|   x2 
--------------1-3-1--| 
--5------------------| 
 
---------------------------------------------------| 
---------------------------------------------------| 
-------------------------------------7-5-----------| 
-----7-7-5---7-7---5-7-5-5-5-5-3---------7-5-------|    
-----------7-----7----------------5-----------8-5--| 
--7------------------------------------------------| 

	  

Search Paypal
auto scroll beats size up size down change color hide chords drawings
tab show chords e-chords YouTube Clip e-chords hide all tabs e-chords go to top tab