Nirvana

home > Nirvana

Radio Friendly Unit Shifter(in utero version) Tab

Nirvana

Difficulty: nolevelnolevel

by Grunge+Boy

tuner correct add songbook print version text version save to e-mail
chordsukulelecavacokeyboardtabbassdrumsharmonicsflute Guitar Pro
chords

Radio Friendly Unit Shifter(in utero version)

  		E-------------------)-(-------)--- 
B----)-(-------)--15---15---15---- 
G--14---14---14------------------- 
D--------------------------------- 
A--------------------------------- 
E--------------------------------- 
 
E--------------------------------- 
B--------------------------------- 
G--------------------------------- 
D---)-(-----)-(-----)-(---(-----)- 
A--4---4---4---4---4---4---4---4-- 
E--------------------------------- 
 
YAY! 
Now that you know the "mystery" effect for it, let's try to master the end of the intro: 
 
E------------------------------------------- 
B------------------------------------------- 
G------------------------------------------- 
D------------------------------------------- 
A----------7---------7---------7---------7-- 
E--x--x-------x--x------x--x------x--x------ 
 
Okay, you should know the whole intro by now. 
Let's get on with the main verse: 
   A      C   G         B  E  F# E  F# E  
E----------------------------------------- 
B----------------------------------------- 
G---------3-------------2----------------- 
D--7--7---3---5--5--5---2--2--4--2--4--2-- 
A--7--7---5---5--5--5---4--2--4--2--4--2-- 
E--5--5-------3--3--3------0--2--0--2--0-- 
 
E-----|-------------------| 
B-----|--or try---2---14--| 
G--7--|-----------2---14--| 
D--7--|-----------2---14--| 
A--7--|-----------0---12--| 
E--5--|-------------------| 
 
Chorus: 
 
E----------------------------------------- 
B----------------------------------------- 
G---------3-------------2----------------- 
D--7--7---3---5--5--5---2--2--4--2--4--2-- 
A--7--7---5---5--5--5---4--2--4--2--4--2-- 
E--5--5-------3--3--3------0--2--0--2--0-- 
 
Lyrics: 
 
Use just once and destroy, 
Invasion of our piracy; 
Afterbirth of a nation, 
Starve without your skeleton key.  
I love you for what I am not, 
I do not want what I haven't got; 
A blanket acne'd with cigarette burns, 
Spin me once, I'll take your turn. 
 
What is wrong with me? 
What is wrong with me? 
What is wrong with me? 
What do I think, I think? 
 
This has nothing to do with what you think, 
If you ever think at all; 
Bi-polar opposites attract, 
All of a sudden my water broke. 
I love you for what I am not, 
I do not want what I haven't got; 
A blanket acne'd with cigarette burns, 
Second rate third-degree burns. 
 
What is wrong with me? 
What is wrong with me? 
What is wrong with me? 
What do I think, I think? 
 
Hate, hate your enemies, 
Save, save your friends; 
Find, find your place, 
Speak, speak the truth. 
 
What is wrong with me? 
What is wrong with me? 
What is wrong with me? 
What do I think, I think? 
 
Use just once and destroy, 
Invasion of our piracy; 
Afterbirth of a nation, 
Starve without your skeleton key.  
I love you for what I am not, 
I do not want what I haven't got; 
A blanket acne'd with cigarette burns, 
Spin me once, I'll take your turn. 
 
What is wrong with me? 
What is wrong with me? 
What is wrong with me? 
What do I think, I think? 
 
---------------------------------------------- 
 
The solo is just the verse played very strangely. 
 
Outro: 
 
E--17--17--17--17--17--17--17--17--|--------)------ 
B----------------------------------|--(---15------- 
G----------------------------------|---14---------- 
D----------------------------------|----------(---- 
A----------------------------------|-----------4--- 
E----------------------------------|--------------- 

	  

Full key step upFull key step up
Half key step upHalf key step up
Half key step downHalf key step down
Full key step downFull key step down
Search Paypal
auto scroll beats size up size down change color hide chords drawings
tab show chords e-chords YouTube Clip e-chords hide all tabs e-chords go to top tab