Nirvana

Plateu Tab

Nirvana

Difficulty: nolevelnolevel

by Maicon%5FAm%5F

tuner correct add songbook print version text version save to e-mail
chordsukulelecavacokeyboardtabbassdrumsharmonicsflute Guitar Pro
close

there isn't a video lesson for this song

request
chords

Plateu

  		Intro: 
|--3-------6-------3-------6-------3-------6-------1---------------- 
|-------------------------------------------------------------1----- 
|------------------------------------------------------0--------0--- 
|------0-------0-------0-------0-------0-------0-------------------- 
|----2-------5-------2-------5-------2-------5---------------------- 
|--3-------6-------3-------6-------3-------6-------1-------1-------- 
 
Play the above 3 times and then once more with the ending like this: 
 
|-------------1------ 
|--1----------------- 
|------0--------0---- 
|-------------------- 
|-------------------- 
|--1-------1--------- 
 
 
The verse is just like the intro except little variations in the fingerstyle 
are thrown in: 
 
|--3-------6-------3-------------    -3---------------1----------------- 
|--------------------------6-----    ---------6------------------1------ 
|-------------------------------- or ---------------------0--------0---- 
|------0-------0-------0-------0-    -----0-------0--------------------- 
|----2-------5-------2-------5---    ---2-------5----------------------- 
|--3-------6-------3-------6-----    -3-------6-------1-------1--------- 
 
Also, there is some variation in the ending of the main phrase (like the 
intro). Listen to the CD if you want to get all these little quirks exactly. 
 
End the verse with: 
 
|--4---------------| 
|------------4-----| 
|------0-----------| 
|------------------| 
|----------3-------| 
|--4---------------| 
 
 
Chorus: 
 
|--3-------3-3------------------------------------------------------------- 
|--------3----------------3-------3-------------------------3-------------- 
|----0--------------------3-------3-------------------------3-------------- 
|----------------3-3------3-------3---------------3-------3-----3---------- 
|---------------------1-------------------------------1-------------1------ 
|--3---3----------------------1-------3---3-------------------------------- 
 
|--------3-------------------------------3--------------------------------- 
|------------3---------3-------3---3---------3---------3------------------- 
|------0---------------3-------3-------0---------------3------------------- 
|----0---------3-------3-------3-----0---------3-------3------------------- 
|------------------1-------------------------------1----------------------- 
|--3-----------------------1-------3-----------------------1--------------- 
 
 
 
Outro: 
 
|--4---------------------4---------6----------------------6\--------------- 
|------------4-------4-----------------------6-------6--------------------- 
|----------------0-------------0-----------------0------------------------- 
|--------------0-------------------------------0--------------------------- 
|----------3-------3-------3---------------5-------5----------------------- 
|--4-------------------4-----------6--------------------------------------- 
 
 
Guitar 1 
|----------------------------------------------------------------0--------- 
|------2-------0-------3-------0-1-----2-------0-------0-------1----------- 
|----2-------2---2---2-------2-------2-------2---2---2-------2------------- 
|--2-------2-------0-------0-------2-------2-------3-------0--------------- 
|--------0---------------3---------------0---------------3----------------- 
|-------------------------------------------------------------------------- 
| Guitar 2 
|--------0-----------2---------0---------0---------------------0----------- 
|------2-----2---------2-------1-------2-----2-------1-0-------1----------- 
|----2---------2---------------0-----2---------2-----2-2-------0----------- 
|--2-------------2-0-------0-2-----2-------------2-3-------0-2------------- 
|------------------------3-------------------------------3----------------- 
|-------------------------------------------------------------------------- 

	  

Search Paypal
auto scroll beats size up size down change color hide chords drawings
tab show chords e-chords YouTube Clip e-chords hide all tabs e-chords go to top tab

share with facebook