Nirvana

home > Nirvana

Pennyroyal Tea (Ver.2) Tab

Nirvana

Difficulty: EasyEasy

by Maicon%5FAm%5F

tuner correct add songbook print version text version save to e-mail
chordsukulelecavacokeyboardtabbassdrumsharmonicsflute Guitar Pro
chords

Pennyroyal Tea (Ver.2)

(Kurt Cobain)

  		Pennyroyal Tea 
 
Intro:     
    Am                      G 
----------------------------|--------------------------| 
-----1---1-------1---1------|--------------------------| 
--2----2---2---2---2---2----|--------------------------| 
----2--------2-----------0--|--------------------------| 
----------------------------|----2---2---2-------------| 
----------------------------|--3---3---3---3-----------| /|                   
 Im on my time with everyone                            / |_____________   
                                                        \ |           | 
--------------------------|--------------------------|   \|           | 
-----1---1-------1---1----|--------------------------|                |   
--2----2---2---2---2---2--|--------------------------|                | 
----2--------2-----------0|--------------------------|                | 
--------------------------|----2---2---2---2---2-----|                | 
--------------------------|--3---3---3---3---3---3---|                | 
 I have very bad posture                                              | 
                                                                      | 
Am                 G                                                  | 
Im on my time with everyone            |                              |     
                                       |______________________________| 
Am              G                      | 
I have very bad posture                |  
 
Am            C          G  
Sit and drink Pennyroyal Tea 
 
Am               C               G 
Distill the life thats inside of me 
 
Am            C          G 
Sit and drink Pennyroyal Tea 
 
Am    C   G 
Im anemic royalty 
 
Intro: 
Am                           G  
Give me a Leonard Cohen afterworld 
So I can sigh eternally 
 
Im so tired I cant sleep 
Im a liar and a thief 
Sit and drink Pennyroyal Tea 
Im anemic royalty 
Intro: 
 
Im on warm milk and laxatives 
Cherry-flavored antacids 
 
(End on Am) 
 
 
Tips:  Slide up fron the C barre to the D barre during the  
Chorus.  During the verse, play F# G E on the low E string as  
the change between the G and Am. 
 
 
     E A D G B e 
Am   x 0 2 2 1 0 
G    3 2 0 0 0 3 
C    0 3 2 0 1 0 

	  

Full key step upFull key step up
Half key step upHalf key step up
Half key step downHalf key step down
Full key step downFull key step down
Search Paypal
auto scroll beats size up size down change color hide chords drawings
tab show chords e-chords YouTube Clip e-chords hide all tabs e-chords go to top tab